Oops, an error
Loading. Please wait.

Los Hombres No Deben Llorar tab

69 views 12 this week
no commentswrite comment
1 2 3 4 5
3 more votes to show rating
add to favorites
×
Save as Personal and add changes to this tab that will be seen only by you. Learn more ›
×
You can save this tab as Personal to edit and correct it or add notes. All changes will be seen only by you. Learn more »
launch autoscroll
font size
0
reset
how to read this tab
guitar tuner
edit
Autoscroll
slow
fast
+/-
esc
set tempo
stop
Este requinto lo invente, esta muy facilya que se toca
lo de la letra del coro, pero si no me entienden aqui
se los puse bien claro

DICE ASI...


    Di cen que los hom bres  no de ben llorar
e|---10-10-10-----------------------------12-------------
B|-------------14--12---12-------12-----12---------------
G|--------------------------12----12------------------
D|-------------------------------------------------
A|-------------------------------------------------
E|-------------------------------------------------


    por u  na mujer  queha pa ga do mal
e|---12------------------------------10----------------
B|------15-14--------------10----10-------------------
G|------------16-14---11------11---------------------
D|-------------------------------------------------
A|-------------------------------------------------
E|-------------------------------------------------

La siguiente parte del cor es casi lo mismo ya que solo
tiene 2 variaciones
     pe ro yo   no pu de con te ner mi llanto
e|---10-10-10--------------------------12-12-------
B|--------------14-12-12-----12-----12-------------
G|------------------------12----12-----------------
D|-------------------------------------------------
A|-------------------------------------------------
E|-------------------------------------------------


     ce rrando los o jos  me puse a llorar
e|---12--------------------------------10----------
B|------15-14----------------10-----10-------------
G|-------------16-14-14---11----11-----------------
D|-------------------------------------------------
A|-------------------------------------------------
E|-------------------------------------------------


Dudas o correcciones son aceptadas ya que soy principiante
todo esto a mi mail

Acatlan Ver.
NEL

            
            
Suggest correction
Creating personal tab
Creating personal tab
You can edit any tab online and save it as your Personal.

You can edit, replace or remove any tab part or add personal notes – all changes will be seen only by you.

Personal tabs can be accessed anytime from any device, even offline.
Learn more »
Give kudos to tab author, rate the tab!
1 2 3 4 5
comments
print report bad tab
guest
Wanna post a correction for this tab? Suggest correction