Oops, an error
Loading. Please wait.

I Talk To The Wind Tab

version 1
version 1

Whole song

Interactive

3,873 views 42 this week
4 commentsread comments
1 2 3 4 5
excellent!
x 3
add to favorites
launch autoscroll
font size
0
reset
how to read this tab
guitar tuner
Autoscroll
slow
fast
+/-
esc
set tempo
stop
Help us to improve Ultimate-Guitar.com Take our survey!
×
Author
-------------------------------------------------------------------------------
                           I TALK TO THE WIND - King Crimson
-------------------------------------------------------------------------------
Tabbed by: Emilym80
E-mail: Emilym80@hotmail.com

Tuning:
From the 1969 album "In the Court of the Crimson King".
The guitar only plays during the chorus and an
interlude/solo.
Thanks to MaggaraMarine for the harmonics in the chorus
Guitar by Robert Fripp

First chorus:
e|--------------------------------------------------------------------------|
B|---12+-----------------------12+------------------------------------------|
G|--------------------------------------------------------------------------|
D|-------7+-16-14-----------------7+--16\14----16\14-13----16\14-13---------|
A|-9+-------------16\14-x3---9+-------------12----------12------------------|
E|--------------------------------------------------------------------------|
Second chorus: Same as the first, but play only the three
repetitions, guitar is then tacet.
Third chorus:
e|-----------------------------------------7+---------------------------------|
B|---12+--------------------------12+-----7+---------------------------------|
G|------------------------------------7+-7+----------------------------------|
D|------7+-16-14--------------------------------16\14-13----14b16------------|
A|-9+------------16\14-x2-------9+-----------12----------12------------------|
E|---------------------------------------------------------------------------|

Interlude/solo:
e|--------------------------------------------------------------------------|
B|--------------------------------------------------------------------------|
G|-14\13---------------------------16/19-------------------14\13------------|
D|------------12/14-14-17-17/21-21------16-16/19-19-21-19-------------------|
A|------14-14----------------------------------------------------14-14------|
E|--------------------------------------------------------------------------|

Interlude/solo continued:
e|--------------------------------------------------------------------------|
B|--------------------------------------------------------------------------|
G|-7/9-9-12-9-16-19\16-16\12-12p11-12p11-12p11-12p11-12p11-12p11-12p11------|
D|--------------------------------------------------------------------------|
A|--------------------------------------------------------------------------|
E|--------------------------------------------------------------------------|

Fourth chorus:
e|--------------------------------------------------------------------------|
B|---12+---------------------12+--------------------------------------------|
G|--------------------------------------------------------------------------|
D|-------7+-16-14----------------7+--------16\14-13----16\14-13-------------|
A|-9+-------------16\14-x2-9+-----------12----------12----------------------|
E|--------------------------------------------------------------------------|

And that's it. Feel free to email me with requests, etc.
Thanks
************************************

| /   slide up
| \   slide down
| h   hammer-on
| p   pull-off
| ~   vibrato
| +   harmonic
| x   Mute note
| b   Bend
| pb  Pre-bend
| br  Bend release
| pbr Pre-bend release
| brb Bend release bend

************************************
Suggest correction
What's this?
You can suggest a correction to this tab. Community and Mods will review your correction and vote to approve or reject it.
comments
We did not receive enough feedback on this tab! Please rate:
print report bad tab
1 2 3 4 5
4 comments total. Showing first comments.
0 reply
MaggaraMarine 3,473 wrote on February 20 2013, 04:57 am

I think the first three notes of the chorus should be harmonics. It really sounds like they are. So instead of:

e|-------------------------
B|-14----------------------
G|----16-14----------------
D|----------16-14----------
A|----------------16\14----
E|-------------------------

it would be:

e|-------------------------
B|-------------------------
G|----12+------------------
D|-------7+-16-14----------
A|-9+-------------16\14----
E|-------------------------

(I would maybe play the 16 14 thing on 11 and 9 frets.)

0 reply
MaggaraMarine 3,473 wrote on February 20 2013, 04:58 am

Sorry, the 12th fret harmonic was meant to be on B string, not G string. It sucks when I try to correct something and fail at it. :)

0 reply
Emilym80 537 wrote on February 23 2013, 10:59 pm

That's true. I thought they sounded like harmonics but never bothered to try, haha. Thanks! :)

guest
You may want to rate the tab now too:
select rating
Please do not post tabs as comments. Select "correction" instead!