Oops, an error
Loading. Please wait.

Sailors Tale bass

139 views 3 this week
no commentswrite comment
1 2 3 4 5
3 more votes to show rating
add to favorites
×
Save as Personal and add changes to this tab that will be seen only by you. Learn more ›
×
You can save this tab as Personal to edit and correct it or add notes. All changes will be seen only by you. Learn more »
launch autoscroll
font size
0
reset
guitar tuner
edit
Autoscroll
slow
fast
+/-
esc
set tempo
stop
-----------------------------------------------------------------------------
                    SAILOR'S TALE - King Crimson
-----------------------------------------------------------------------------

Band: King Crimson
Song: Sailor's Tale
Album: Islands (1971)

Tabbed by: crimson-dync
Tuning: Standard


Notes:
-The "." means silence.
-Parts in 6/4: 225 bpm.
-Part in 4/4: 120 bpm.


(0:13)
     x   x   x   x   x   x
G| |-------------14----------|
D|6|-----------------17--14--| (x13)
A|4|-0-----15----------------|
E| |-------------------------|
   |          (x4)           |

(1:30)
     x   x   x   x   x   x
G| |-------------------------|
D|6|-------------7---5-------| (x9)
A|4|-0-----4-------------7---|
E| |-------------------------|
   |          (x4)           |

(2:26)
     x   x   x   x   x   x     x   x   x   x   x   x
G| |-------------------------|-------------------------|
D|6|-------------------------|-------------------------|
A|4|-------------------------|-------------------------|
E| |-0-----------------------|-~-----------------------|

     x   x   x   x   x   x       x   x   x       x   x   x   x
G| |-------------------------| |-------------| |-----10\\9-------|
D|6|-------------------------|3|-------------|4|-----------------|
A|4|-------------------------|4|-------------|4|-----------------|
E| |-------------------------| |-------------| |-------------0---|

(2:33)
     x   x   x   x     x   x   x   x     x   x   x   x     x   x   x   x
G| |-----------------|-----------------|-----------------|-----------------|
D|4|-----------------|-------------5---|-7---------------|-----------------|
A|4|-----------------|-5---7-----------|-----------------|-5---------------|
E| |-5-------8-------|-----------------|---------8-------|---------0---3---|
   |                (x3)               |

     x   x   x   x     x   x   x   x     x   x   x   x     x   x   x   x
G| |-----------------|-----------------|-----------------|-----------------|
D|4|-----------------|-------------7---|-----------------|-----------5-7-7-|
A|4|-----------------|-5---7-----------|-----------------|-5---7-----------|
E| |-5-------8-------|-----------------|-5-------8-------|-----------------|

     x   x   x   x     x   x   x   x     x   x   x   x     x   x   x   x
G| |-----------------|-----------------|-----------------|-----------------|
D|4|-----------------|-----------------|-----------------|-----------5-7-5-|
A|4|-----------------|-5---------------|-----------------|-5---7-----------|
E| |-5-------8-------|-----0-------3---|-5-------8-------|-----------------|

(3:05)
     x   x   x   x     x   x   x   x     x   x   x   x     x   x   x   x
G| |-----------------|-------------7---|-----------------|-----------------|
D|4|-----------------|-----------5-----|-----------------|-----------------|
A|4|-----------------|-5---7-----------|-----------------|-5-------------3-|
E| |-5-------8-------|-----------------|-5-------8-------|-----0-----3-5---|
                                       |                (x3)               |

     x   x   x   x     x   x   x   x     x   x   x   x     x   x   x   x
G| |-----------------|-----------------|-----------------|-----------------|
D|4|-----------------|-----------5-7-7-|-7---------------|-----------5-7-7-|
A|4|-----------------|-5---7-----------|-----------------|-5---7-----------|
E| |-5-------8-------|-----------------|---------8-------|-----------------|

     x   x   x   x     x   x   x   x     x   x   x   x     x   x   x   x
G| |-----------------|-----------------|-----------------|-----------5-7-5-|
D|4|-7---------------|-----------5-7---|-----------------|-5---7-----------|
A|4|-----------------|-5---7-----------|-5-------8-------|-----------------|
E| |---------8-------|-----------------|-----------------|-----------------|

(3:36)
     x   x   x   x     x   x   x   x     x   x   x   x     x   x   x   x
G| |-----------------|-------5-7-5-----|-----------------|-----------------|
D|4|-----------------|-5---7-------7-5-|-----------------|-----------5-7-.-|
A|4|-5-------8-------|-----------------|-----------------|-5---7-----------|
E| |-----------------|-----------------|-5-------8-------|-----------------|

     x   x   x   x     x   x   x   x     x   x   x   x     x   x   x   x
G| |-----------------|-----------------|-----------------|-----------------|
D|4|-----------------|-----------------|-----------------|-----------5-7-.-|
A|4|-----------------|-5-------------3-|-----------------|-5---7-----------|
E| |-5-------8-------|-----0-----3-5---|-5-------8-------|-----------------|

     x   x   x   x     x   x   x   x     x   x   x   x     x   x   x   x
G| |-----------------|---------7-9-----|-----------------|-------------7---|
D|4|-----------------|-------6-----9---|-----------------|-----------5---5-|
A|4|-----------------|-5---7---------7-|-----------------|-5---7-----------|
E| |-5-------8-------|-----------------|-5-------8-------|-----------------|

     x   x   x   x     x   x   x   x     x   x   x   x     x   x   x   x
G| |-----------------|-----------------|-----------------|-----------------|
D|4|-----------------|-----------------|-----------------|-----------------|
A|4|-----------------|-5-------------3-|-----------------|-5-------------3-|
E| |-5-------8-------|-----0-----3-5---|-5-------8-------|-----0-----3-5---|

(4:06)
     x   x   x   x     x   x   x   x     x   x   x   x     x   x   x   x
G| |-----------------|-----------------|-----------------|-----------------|
D|4|-----------------|-----------5-7---|-----------------|-----------5-7---|
A|4|-----------------|-5---7-----------|-----------------|-5---7-----------|
E| |-5-------8-------|-----------------|-5-------8-------|-----------------|

     x   x   x   x     x   x   x   x     x   x   x   x     x   x   x   x
G| |-----------------|-----------------|-----------------|-----------------|
D|4|-----------------|-----------------|-----------------|-----------5-7---|
A|4|-----------------|-5-------------3-|-----------------|-5---7-----------|
E| |-5-------8-------|-----0-----3-5---|-5-------8-------|-----------------|

     x   x   x   x     x   x   x   x
G| |-----------------|-----------------|
D|4|-----------------|-----------------|
A|4|-----------------|-5---------------|
E| |-5-------8-------|-----0-----3-5---|

(4:25)
     x   x   x   x   x   x     x   x   x   x   x   x
G| |-------------------------|-------------------------|
D|6|-------------7---5-------|-------------7---5-------|
A|4|---------------------7---|---------------------7---|
E| |-5-----8-----------------|-5-----8-----------------|
   |          (x4)           |          (x2)           |

     x   x   x   x   x   x     x   x   x   x   x   x
G| |-------------7---5-------|-------------------------|
D|6|---------------------7---|-------------7---5-------|
A|4|-------------------------|---------------------7---|
E| |-5-----8-----------------|-5-----8-----------------|

     x   x   x   x   x   x     x   x   x   x   x   x
G| |-------------------------|-------------------------|
D|6|---------------------5---|-------------7---5-------|
A|4|-------------5---7-------|---------------------7---|
E| |-5-----8-----------------|-5-----8-----------------|
                             |          (x3)           |

     x   x   x   x   x   x     x   x   x   x   x   x
G| |-------------------------|-------------------------|
D|6|-------------7---5-------|-------------7---5-------|
A|4|---------------------7---|---------------------7---|
E| |-5-----8-----------------|-5-----8-----------------|
   |          (x4)           |          (x4)           |

     x   x   x   x   x   x     x   x   x   x   x   x
G| |-------------------------|-------------------------|
D|6|---------------------5---|-------------7---5-------|
A|4|-------------5---7-------|---------------------7---|
E| |-5-----8-----------------|-5-----8-----------------|
   |          (x3)           |

     x   x   x   x   x   x     x   x   x   x   x   x
G| |-------------------------|-------------7---5-------|
D|6|-------------7---5-------|---------------------7---|
A|4|---------------------7---|-5-----8-----------------|
E| |-5-----8-----------------|-------------------------|
   |          (x2)           |          (x2)           |

     x   x   x   x   x   x     x   x   x   x   x   x
G| |-------------------------|---------------------12--|
D|6|-------------7---5-------|-------------12--14------|
A|4|---------------------7---|-0-----15----------------|
E| |-5-----8-----------------|-------------------------|
   |          (x2)           |          (x2)           |

(5:17)
     x   x   x   x   x   x     x   x   x   x   x   x
G| |-------------14--12------|-------------------------|
D|6|---------------------14--|-------------7---5-------|
A|4|-0-----15----------------|---------------------7---|
E| |-------------------------|-5-----8-----------------|
   |          (x2)           |          (x2)           |

     x   x   x   x   x   x     x   x   x   x   x   x
G| |-------------------------|-------------7---5-------|
D|6|-------------7---5-------|---------------------7---|
A|4|---------------------7---|-------------------------|
E| |-5-----8-----------------|-5-----8-----------------|
   |          (x3)           |

     x   x   x   x   x   x     x   x   x   x   x   x
G| |-------------------------|-------------7---5-------|
D|6|-------------7---5-------|---------------------7---|
A|4|---------------------7---|-------------------------|
E| |-5-----8-----------------|-5-----8-----------------|

     x   x   x   x   x   x     x   x   x   x   x   x
G| |-------------------------|-------------------------|
D|6|-------------7---5-------|-------------7---5-------|
A|4|---------------------7---|---------------------7---|
E| |-5-----8-----------------|-5-----8-----------------|
   |          (x4)           |          (x4)           |

     x   x   x   x   x   x     x   x   x   x   x   x
G| |-------7---------7---7---|-------7---------7-------|
D|6|-------------------------|-------------------------|
A|4|-5-----------5-----------|-5-----------5-----------|
E| |-------------------------|-------------------------|
   |          (x3)           |

     x   x   x   x   x   x     x   x   x   x   x   x
G| |-------7---------7---7---|-------7-----------8-----|
D|6|-------------------------|-------------------------|
A|4|-5-----------5-----------|-5-----------5-----------|
E| |-------------------------|-------------------------|
   |          (x4)           |          (x2)           |

     x   x   x   x   x   x     x   x   x   x   x   x
G| |-------7-----------8-----|-------------------------|
D|6|-------------------------|-------------------------|
A|4|-5-----------6-----------|-5---.-------------------|
E| |-------------------------|-------------------------|



Buenos Aires. March, 2017.

soldync@yahoo.com.ar

            
            
Suggest correction
Creating personal tab
Creating personal tab
You can edit any tab online and save it as your Personal.

You can edit, replace or remove any tab part or add personal notes – all changes will be seen only by you.

Personal tabs can be accessed anytime from any device, even offline.
Learn more »
Give kudos to tab author, rate the tab!
1 2 3 4 5
comments
print report bad tab
guest
You may want to rate the tab now too:
select rating
Wanna post a correction for this tab? Suggest correction