Oops, an error
Loading. Please wait.

Starless intro tab

version 1
version 1

Intro

Whole song

Interactive

36,010 views 96 this week
3 commentsread comments
1 2 3 4 5
x 14
add to favorites
×
Save as Personal and add changes to this tab that will be seen only by you. Learn more ›
×
You can save this tab as Personal to edit and correct it or add notes. All changes will be seen only by you. Learn more »
launch autoscroll
font size
0
reset
how to read this tab
guitar tuner
backing track
0:00
0:00
edit
Autoscroll
slow
fast
+/-
esc
set tempo
stop
-------------------------------------------------------------------------------
                             SONG NAME - Band Name
-------------------------------------------------------------------------------
Tabbed by: Murray Lewis
Email: minigunfiend@gmail.com

Tuning: Standard

This is the incredible sounding guitar solo at the start of Starless (on the Red album).
It's repeated a few times throughout the song with some variations, but it's mostly the 
basic pattern.

It's a very simple solo, but sounds great - just remember to hold notes for as long as 
(particularly the last note, just before you bend it as the lyrics begin), and play with feeling.

Enjoy!



[Intro]

e|---------------------------------------------------------------------------|
B|-----11~--10^11^10-8----------------------------11~-10^11^10-8-------------|
G|---7-----------------8p7~--7-10-------------------------------8p7~---7-10--|
D|10-----------------------8------7^8^7~-8-10-12---------------------8-------|
A|---------------------------------------------------------------------------|
E|---------------------------------------------------------------------------|

e|---------------------------------------------------------------------------|
B|---------------------------------------------------------------------------|
G|---------------------------------------------------------------------------|
D|7^8^7~---------------------------------------------------------------------|
A|---------------------------------------------------------------------------|
E|---------------------------------------------------------------------------|

(Mellotron chords)

e|--------------------------------13---------------------18~--17^18^17-15----|
B|-----11~--10^11^10-8---------15---------------------15---------------------|
G|---7-----------------8p7~-15-------14^15^14~--15-17------------------------|
D|10-------------------------------------------------------------------------|
A|---------------------------------------------------------------------------|
E|---------------------------------------------------------------------------|

e|---------13----------------------------------------------------------------|
B|16p15~------15-------------------------------------------------------------|
G|-------15-------14~--------------------------------------------------------|
D|---------------------------------------------------------------------------|
A|---------------------------------------------------------------------------|
E|---------------------------------------------------------------------------|



************************************


| p   Pull-off
| b   Bend
| ~   Vibrato


************************************


            
            
Suggest correction
Creating personal tab
Creating personal tab
You can edit any tab online and save it as your Personal.

You can edit, replace or remove any tab part or add personal notes – all changes will be seen only by you.

Personal tabs can be accessed anytime from any device, even offline.
Learn more »
comments
print report bad tab
3 comments total.
0 reply
thfc 16 Mar 14, 2009 08:51 AM

Spot on. What a great intro

0 reply
Bornlivedie UK 20 Dec 12, 2009 10:47 AM

Wrong key, it starts on Bb

0 reply
breadstick 130 Mar 01, 2010 12:06 AM

Plays perfectly.

guest
You may want to rate the tab now too:
select rating
Wanna post a correction for this tab? Suggest correction