Oops, an error
Loading. Please wait.

Memphis Soul Stew tab

version 1
version 1

Whole song

6,605 views 15 this week
1 commentread comment
1 2 3 4 5
x 7
add to favorites
×
Save as Personal and add changes to this tab that will be seen only by you. Learn more ›
×
You can save this tab as Personal to edit and correct it or add notes. All changes will be seen only by you. Learn more »
launch autoscroll
font size
0
reset
how to read this tab
guitar tuner
edit
Autoscroll
slow
fast
+/-
esc
set tempo
stop
Author
http://en.wikipedia.org/wiki/King_Curtis
This is a very simple line, I've transcribed it in class today so I've figrued some of 
guys could find good use for it aswell:
The rythm was a headache to format, espicially in the intro, so I hope you guys would 
it well.

By the way, to anyone interested, throught the song the only chord played is Em7.

Tempo: Around 110.
Intro:

 |       |        |       |        |       |       |       |
|--------------------------------|--------------------------------|
|--------------------------------|--------------------------------|
|7-----7-7-----7-7-7---7---7-7---|7-----7-7-----7-7-7---7---------|
|--------------------------------|------------------------7---10--|

 |       |       |       |        |       |       |       |
|--------------------------------|--------------------------------|
|--------------------------------|--------------------------------|
|7-------7-----7-7-7---7---7-7---|7-------7-----7-7-----7---------|
|--------------------------------|------------------------7---10--|

 |       |       |       |        |       |       |       |
|--------------------------------|--------------------------------|
|--------------------------------|--------------------------------|
|7-----7-7-----7-7-7---7---7-7---|7-----7-7-----7-7-7-------------|
|--------------------------------|----------------------7---7-10--|

 |       |       |       |        |       |       |       |
|--------------------------------|--------------------------------|
|--------------------------------|--------------------------------|
|7-----7-7-----7-7-7---7---7-7---|7-----7-7-----7-7-7-------------|
|--------------------------------|------------------------7---10--|

 |       |       |       |
|--------------------------------|
|--------------------------------|
|7-------7-----7-7-7---7---7-7---|
|--------------------------------|

"Give me about a half of tea cup... of Base."
Rest of the song:

 |       |       |       |        |       |       |       |
|--------9-7---9---7-------------|--------9-7---9---7-------------|
|------9-------------9-----------|------9-------------9-----------|
|7-------------------------------|7-------------------------------|
|------------------------7---10--|------------------------7---10--|

Gal.
Suggest correction
Creating personal tab
Creating personal tab
You can edit any tab online and save it as your Personal.

You can edit, replace or remove any tab part or add personal notes – all changes will be seen only by you.

Personal tabs can be accessed anytime from any device, even offline.
Learn more »
comments
print report bad tab
1 comment total.
0 reply
EdwardoWinter 65 Sep 05, 2015 01:28 PM

Good.
It alternates between a few bars each of Em7 and A7

guest
You may want to rate the tab now too:
select rating
Wanna post a correction for this tab? Suggest correction