Oops, an error
Loading. Please wait.

Eye Of The Witch Bass Tab

version 1
version 1

Whole song

Interactive

525 views 1 this week
no commentswrite comment
1 2 3 4 5
please rate
add to favorites
launch autoscroll
font size
0
reset
guitar tuner
Tab Pro tools
  • play this tab
  • loop segment
  • change instrument
  • show fretboard
  • metronome
×
Best way to learn
"Eye Of The Witch"
Autoscroll
slow
fast
+/-
esc
set tempo
stop
Contributor
G||------------------------------------|---------------------------------------|
D||--0----------------0----------------|--0--0----------------0----------------|
A||------------------------------------|---------------------------------------|
E||------------------------------------|---------------------------------------|

-----------------------7-5-5--------------------7-5-5--|
-------------------------------------------------------|
--5--5--5--5--5--5--5---------5--5--5--5--5--5---------|
-------------------------------------------------------|

-----------------------7-5-5--------------------7-5-5--|
-------------------------------------------------------|
--5--5--5--5--5--5--5---------5--5--5--5--5--5---------|
-------------------------------------------------------|

-----------------------7-5-5--------------------7-5-5--|
-------------------------------------------------------|
--5--5--5--5--5--5--5---------5--5--5--5--5--5---------|
-------------------------------------------------------|

----------------------------------------------------|
--12/-0-----------5--5-3---12/-0--------------------|
---------5---5-8------------------5---5-6--6--6-----|
------------------------------------------------8---|

----------------------------------------------------|
--12/-0-----------5--5-3---12/-0--------------------|
---------5---5-8------------------5---5-6--6--6-----|
------------------------------------------------8---|

----------------------------------------------------|--9--------8--------7------------------|
--12/-0-----------5--5-3---12/-0--------------------|---------------------------------------|
---------5---5-8------------------5---5-6--6--6-----|-----------------------------3----5----|
------------------------------------------------8---|---------------------------------------|

--9--------8--------7------------------|-----------------------7-5-5--------------------7-5-5--|
---------------------------------------|-------------------------------------------------------|
-----------------------------3----5----|--5--5--5--5--5--5--5---------5--5--5--5--5--5---------|
---------------------------------------|-------------------------------------------------------|

-----------------------7-5-5--------------------7-5-5--|
-------------------------------------------------------|
--5--5--5--5--5--5--5---------5--5--5--5--5--5---------|
-------------------------------------------------------|

-----------------------7-5-5--------------------7-5-5--|
-------------------------------------------------------|
--5--5--5--5--5--5--5---------5--5--5--5--5--5---------|
-------------------------------------------------------|

----------------------------------------------------|
--12/-0-----------5--5-3---12/-0--------------------|
---------5---5-8------------------5---5-6--6--6-----|
------------------------------------------------8---|

----------------------------------------------------|
--12/-0-----------5--5-3---12/-0--------------------|
---------5---5-8------------------5---5-6--6--6-----|
------------------------------------------------8---|

----------------------------------------------------|--9--------8--------7------------------|
--12/-0-----------5--5-3---12/-0--------------------|---------------------------------------|
---------5---5-8------------------5---5-6--6--6-----|-----------------------------3----5----|
------------------------------------------------8---|---------------------------------------|

--9--------8--------7------------------|-----------------------7-5-5--------------------7-5-5--|
---------------------------------------|-------------------------------------------------------|
-----------------------------3----5----|--5--5--5--5--5--5--5---------5--5--5--5--5--5---------|
---------------------------------------|-------------------------------------------------------|

-----------------------7-5-5--------------------7-5-5--|
-------------------------------------------------------|
--5--5--5--5--5--5--5---------5--5--5--5--5--5---------|
-------------------------------------------------------|

-----------------------7-5-5--------------------7-5-5--|
-------------------------------------------------------|
--5--5--5--5--5--5--5---------5--5--5--5--5--5---------|
-------------------------------------------------------|

---------------------------------------------------|--------------------------------------------|
------------------------------------------5--5-3---|--------------------------------------------|
--5-5-5-5-5------8-7-8-7---5-5-5-5-5---------------|--5-5-5-5-5------8-7-8-7---5---0---3--------|
---------------------------------------------------|--------------------------------------------|

---------------------------------------------------|--------------------------------------------|
------------------------------------------5--5-3---|--------------------------------------------|
--5-5-5-5-5------8-7-8-7---5-5-5-5-5---------------|--5-5-5-5-5------8-7-8-7---5---0---3--------|
---------------------------------------------------|--------------------------------------------|

----------------------------------------------------------|
--------------------5--4--5---------------------7--7--5---|
--7-7-7-7-7-7-7-7-7-----------7-7-7-7-7-7-7-7-7-----------|
----------------------------------------------------------|

--------------------------------------------------|
--------------------5--4--5-----------------------|
--7-7-7-7-7-7-7-7-7-------------------------------|
------------------------------7---6---5--------6--|

----------------------------------------------------------|
--------------------5--4--5---------------------7--7--5---|
--7-7-7-7-7-7-7-7-7-----------7-7-7-7-7-7-7-7-7-----------|
----------------------------------------------------------|

--------------------------------------------------|
--------------------5--4--5-----------------------|
--7-7-7-7-7-7-7-7-7-------------------------------|
------------------------------7---6---5--------6--|

----------------------------------------------------|
--12/-0-----------5--5-3---12/-0--------------------|
---------5---5-8------------------5---5-6--6--6-----|
------------------------------------------------8---|

----------------------------------------------------|
--12/-0-----------5--5-3---12/-0--------------------|
---------5---5-8------------------5---5-6--6--6-----|
------------------------------------------------8---|

----------------------------------------------------|--9--------8--------7------------------|
--12/-0-----------5--5-3---12/-0--------------------|---------------------------------------|
---------5---5-8------------------5---5-6--6--6-----|-----------------------------3----5----|
------------------------------------------------8---|---------------------------------------|

--9--------8--------7------------------|-----------------------7-5-5--------------------7-5-5--|
---------------------------------------|-------------------------------------------------------|
-----------------------------3----5----|--5--5--5--5--5--5--5---------5--5--5--5--5--5---------|
---------------------------------------|-------------------------------------------------------|

-----------------------7-5-5--------------------7-5-5--|
-------------------------------------------------------|
--5--5--5--5--5--5--5---------5--5--5--5--5--5---------|
-------------------------------------------------------|

-----------------------7-5-5--------------------7-5-5--|
-------------------------------------------------------|
--5--5--5--5--5--5--5---------5--5--5--5--5--5---------|
-------------------------------------------------------|

-----------------------7-5-5--------------------7-5-5--|
-------------------------------------------------------|
--5--5--5--5--5--5--5---------5--5--5--5--5--5---------|
-------------------------------------------------------|

-----------------------7-5-5--------------------7-5-5--|
-------------------------------------------------------|
--5--5--5--5--5--5--5---------5--5--5--5--5--5---------|
-------------------------------------------------------|

-----------------------7-5-5-------------------|------------------||
------------------------------0----------------|------------------||
--5--5--5--5--5--5--5--------------------------|------------------||
-----------------------------------------------|------------------||
comments
We did not receive enough feedback on this tab! Please rate:
print report bad tab
1 2 3 4 5
I want to post or [tab]
guest
You may want to rate the tab now too:
select rating
Please do not post tabs as comments. Select "correction" instead!