Oops, an error
Loading. Please wait.

Give Me Your Soul Tab

version 1
version 1

Whole song

Interactive

5,208 views 1 this week
no commentswrite comment
1 2 3 4 5
accurate
x 3
add to favorites
launch autoscroll
font size
0
reset
how to read this tab
guitar tuner
Autoscroll
slow
fast
+/-
esc
set tempo
stop
Help us to improve Ultimate-Guitar.com Take our survey!
×
Author
Difficulty
-------------------------------------------------------------------------------
                             Give Me Your Soul - King Diamond
-------------------------------------------------------------------------------
Tabbed by: Duncan Cannon (Malakiancopycat)
Email:duncanjdms@hotmail.com

Tuning:Standard

Intro/Chorus
e|---------------------------------------------------------------------------|
B|-------5---6---------------------------------------------------------------|
G|-7-----5---5---------------------------------------------------------------|
D|-7-----5---5---------------------------------------------------------------|
A|-5-------------7-----------------------------------------------------------|
E|---------------6----6666666666666666666666666666666------------------------|
                      xxxxxxxxxxxxxxxxxxxxxxxxxxxxxxx

Verse/Riff 1
e|---------------------------------------------------------------------------|
B|---------------------------------------------------------------------------|
G|---------------------------------------------------------------------------|
D|--------------------2-----------2------------------5-4-7-5-----------------|
A|--------------------0-----------0------------------3-2-5-3-----------------|
E|-2-2-0-2-2-0-2-2---------2-2-----------2-2-0-2-2-0-------------------------|
   x x x x x x x x         x x           x x x x x x

e|---------------------------------------------------------------------------|
B|---------------------------------------------------------------------------|
G|---------------------------------------------------------------------------|
D|--------------------2-----------2------4-----------------------------------|
A|--------------------0-----------0------2----5------------------------------|
E|-2-2-0-2-2-0-2-2---------2-2----------------3------------------------------|
   x x x x x x x x         x x

Verse Riff 2
e|---------------------------------------------------------------------------|
B|---------------------------------------------------------------------------|
G|---------------------------------------------------------------------------|
D|---------------------------------------------------------------------------|
A|-----------5---------7------------2-3--------------------------------------|
E|-5-5-5-5-----5-5-5-----5-5-5----3------------------------------------------|


e|---------------------------------------------------------------------------|
B|---------------------------------------------------------------------------|
G|---------------------------------------------------------------------------|
D|---------------------------------------------------------------------------|
A|-----------5---------7------------2-3-5-3-2--------------------------------|
E|-5-5-5-5-----5-5-5-----5-5-5----3------------------------------------------|

Pre Chorus/Riff 3 ././ pictures in red././
e|------------------------------------------------------------------------------|
B|------------------------------------------------------------------------------|
G|------------------------------------------------------------------------------|
D|-----------------4-------------------------6----------------------------------|
A|---------x3------2---5--------------x3-----4--7-------------------------------|
E|--2-2-2-0------------3-------4-4-4-0----------5-------------------------------|
    x x x x                    x x x x


| x  Mute note
===============
Order
===============
Intro x3
Verse/Riff 1 x4
Verse/Riff 2 x2
Pre Chorus/Riff 3 x1
Intro x 2
Verse/Riff 1 x2
Pre Chorus/Riff 3 x4 or 8
Intro x4
Verse/Riff 1 x2
Pre Chorus/Riff 3 x 8
Intro x9
===============================================================
Suggest correction
What's this?
You can suggest a correction to this tab. Community and Mods will review your correction and vote to approve or reject it.
comments
We did not receive enough feedback on this tab! Please rate:
print report bad tab
1 2 3 4 5
guest
You may want to rate the tab now too:
select rating
Please do not post tabs as comments. Select "correction" instead!