Oops, an error
Loading. Please wait.

Altered Beast Ii bass

199 views 15 this week
no commentswrite comment
1 2 3 4 5
2 more votes to show rating
add to favorites
×
Save as Personal and add changes to this tab that will be seen only by you. Learn more ›
×
You can save this tab as Personal to edit and correct it or add notes. All changes will be seen only by you. Learn more »
launch autoscroll
font size
0
reset
guitar tuner
edit
Autoscroll
slow
fast
+/-
esc
set tempo
stop
[Intro]- bass enters at about 0:27 seconds.
[Spoken Word]
G|------------------------------2-------------------------------2--|
D|--2p0-2p0-2p0-3---2p0-2p0-2p0-----2p0-2p0-2p0-3---2p0-2p0-2p0----|
A|-----------------------------------------------------------------|
E|-----------------------------------------------------------------|

G|------------------------------2-------------------------------2--|
D|--2p0-2p0-2p0-3---2p0-2p0-2p0-----2p0-2p0-2p0-3---2p0-2p0-2p0----|
A|-----------------------------------------------------------------|
E|-----------------------------------------------------------------|

[Verse]
G|------------------------------2-------------------------------2--|
D|--2p0-2p0-2p0-3---2p0-2p0-2p0-----2p0-2p0-2p0-3---2p0-2p0-2p0----|
A|-----------------------------------------------------------------|
E|-----------------------------------------------------------------|

G|------------------------------2-------------------------------2--|
D|--2p0-2p0-2p0-3---2p0-2p0-2p0-----2p0-2p0-2p0-3---2p0-2p0-2p0----|
A|-----------------------------------------------------------------|
E|-----------------------------------------------------------------|

[Post-Verse]
G|------------------------------------------------------------------|
D|--2p0-2p0-2p0-----2p0-2p0-2p0-----2p0-2p0-2p0-----2p0-2p0-2p0-----|
A|------------------------------------------------------------------|
E|--------------1~--------------5~--------------1~--------------5~--|

G|------------------------------------------------------------------|
D|--2p0-2p0-2p0-----2p0-2p0-2p0-----2p0-2p0-2p0-----2p0-2p0-2p0-----|
A|------------------------------------------------------------------|
E|--------------1~--------------5~--------------1~--------------5~--|

[Verse]
G|------------------------------2-------------------------------2--|
D|--2p0-2p0-2p0-3---2p0-2p0-2p0-----2p0-2p0-2p0-3---2p0-2p0-2p0----|
A|-----------------------------------------------------------------|
E|-----------------------------------------------------------------|

G|------------------------------2-------------------------------2--|
D|--2p0-2p0-2p0-3---2p0-2p0-2p0-----2p0-2p0-2p0-3---2p0-2p0-2p0----|
A|-----------------------------------------------------------------|
E|-----------------------------------------------------------------|

[Post-Verse]
G|------------------------------------------------------------------|
D|--2p0-2p0-2p0-----2p0-2p0-2p0-----2p0-2p0-2p0-----2p0-2p0-2p0-----|
A|------------------------------------------------------------------|
E|--------------1~--------------5~--------------1~--------------5~--|

G|------------------------------------------------------------------|
D|--2p0-2p0-2p0-----2p0-2p0-2p0-----2p0-2p0-2p0-----2p0-2p0-2p0-----|
A|------------------------------------------------------------------|
E|--------------1~--------------5~--------------1~--------------5~--|

[Verse/Pre-Chorus]
G|-----------------------------------------------------------------|
D|-----------------------------------------------------------------|
A|--2p0-2p0-2p0-3---2p0-2p0-2p0-5---2p0-2p0-2p0-3---2p0-2p0-2p0-5--|
E|-----------------------------------------------------------------|

G|------------------------------------------------------------|
D|------------------------------------------------------------|
A|--2p0-2p0-2p0-3---2p0-2p0-2p0-5---2p0-2p0-2p0-3---2~----0~--|
E|------------------------------------------------------------|

[Bridge]
G|-------------------------5-------------------------5-------------------------5-------------------------5--|
D|-------7-5-7~---7-5-7--5---------7-5-7~---7-5-7--5---------7-5-7~---7-5-7--5---------7-5-7~---7-5-7--5----|
A|----------------------------------------------------------------------------------------------------------|
E|--3-5~----------------------3-5~----------------------3-5~----------------------3-5~----------------------|

G|-------------------------5-------------------------5-------------------------5-------------------------5--|
D|-------7-5-7~---7-5-7--5---------7-5-7~---7-5-7--5---------7-5-7~---7-5-7--5---------7-5-7~---7-5-7--5----|
A|----------------------------------------------------------------------------------------------------------|
E|--3-5~----------------------3-5~----------------------3-5~----------------------3-5~----------------------|

"Tell me what you honestly..."
G|-------------------------7-------------------------7-------------------------7-------------------------7--|
D|-------7-5-7~---7-5-7--5---------7-5-7~---7-5-7--5---------7-5-7~---7-5-7--5---------7-5-7~---7-5-7--5----|
A|----------------------------------------------------------------------------------------------------------|
E|--3-5~----------------------3-5~----------------------3-5~----------------------3-5~----------------------|

[Chorus]
"I Am An Altered Beast!"
G|-----------|
D|-----------|
A|--7--------|
E|-----3--6--|

G|-----------------------------------------------------------------|
D|-----------------------------------------------------------------|
A|--0-7-4---0-7-4---0-7-4---0-7-4---0-7-4---0-7-4---0-7-4---0-7-4--|
E|-----------------------------------------------------------------|

[Break]
"What harm could any immortal like you do?"

[Verse]
(bass comes in at about 2:32.)
G|------------------------------2-------------------------------2--|
D|--2p0-2p0-2p0-3---2p0-2p0-2p0-----2p0-2p0-2p0-3---2p0-2p0-2p0----|
A|-----------------------------------------------------------------|
E|-----------------------------------------------------------------|

G|------------------------------2----------------------------------|
D|--2p0-2p0-2p0-3---2p0-2p0-2p0-----2p0-2p0-2p0-3---2p0-2p0-2p0----|
A|--------------------------------------------------------------0--|
E|-----------------------------------------------------------------|

[Post-Verse]
G|------------------------------------------------------------------|
D|--2p0-2p0-2p0-----2p0-2p0-2p0-----2p0-2p0-2p0-----2p0-2p0-2p0-----|
A|------------------------------------------------------------------|
E|--------------1~--------------5~--------------1~--------------5~--|

G|------------------------------------------------------------------|
D|--2p0-2p0-2p0-----2p0-2p0-2p0-----2p0-2p0-2p0-----2p0-2p0-2p0-----|
A|------------------------------------------------------------------|
E|--------------1~--------------5~--------------1~--------------5~--|

[Verse]
G|------------------------------2-------------------------------2--|
D|--2p0-2p0-2p0-3---2p0-2p0-2p0-----2p0-2p0-2p0-3---2p0-2p0-2p0----|
A|-----------------------------------------------------------------|
E|-----------------------------------------------------------------|

G|------------------------------2-------------------------------2--|
D|--2p0-2p0-2p0-3---2p0-2p0-2p0-----2p0-2p0-2p0-3---2p0-2p0-2p0----|
A|-----------------------------------------------------------------|
E|-----------------------------------------------------------------|

[Post-Verse]
G|------------------------------------------------------------------|
D|--2p0-2p0-2p0-----2p0-2p0-2p0-----2p0-2p0-2p0-----2p0-2p0-2p0-----|
A|------------------------------------------------------------------|
E|--------------1~--------------5~--------------1~--------------5~--|

G|------------------------------------------------------------------|
D|--2p0-2p0-2p0-----2p0-2p0-2p0-----2p0-2p0-2p0-----2p0-2p0-2p0-----|
A|------------------------------------------------------------------|
E|--------------1~--------------5~--------------1~--------------5~--|

[Verse/Pre-Chorus]
G|-----------------------------------------------------------------|
D|-----------------------------------------------------------------|
A|--2p0-2p0-2p0-3---2p0-2p0-2p0-5---2p0-2p0-2p0-3---2p0-2p0-2p0-5--|
E|-----------------------------------------------------------------|

G|------------------------------------------------------------|
D|------------------------------------------------------------|
A|--2p0-2p0-2p0-3---2p0-2p0-2p0-5---2p0-2p0-2p0-3---2~----0~--|
E|------------------------------------------------------------|

(Bass sits out for a few seconds. Comes back in at about 3:36)
[Bridge]
G|---------------------------5-------------------------5--|
D|---------7-5-7~---7-5-7--5---------7-5-7~---7-5-7--5----|
A|--------------------------------------------------------|
E|--3~--5~----------------------3-5~----------------------|

G|-------------------------5-------------------------5-------------------------5-------------------------5--|
D|-------7-5-7~---7-5-7--5---------7-5-7~---7-5-7--5---------7-5-7~---7-5-7--5---------7-5-7~---7-5-7--5----|
A|----------------------------------------------------------------------------------------------------------|
E|--3-5~----------------------3-5~----------------------3-5~----------------------3-5~----------------------|

"Tell me what you honestly..."
G|-------------------------7-------------------------7-------------------------7-------------------------7--|
D|-------7-5-7~---7-5-7--5---------7-5-7~---7-5-7--5---------7-5-7~---7-5-7--5---------7-5-7~---7-5-7--5----|
A|----------------------------------------------------------------------------------------------------------|
E|--3-5~----------------------3-5~----------------------3-5~----------------------3-5~----------------------|

G|-------------------------5-------------------------5-------------------------3-------------------------2--|
D|-------5-3-5~---5-3-5--3---------5-3-5~---5-3-5--3---------3-1-3~---3-1-3--1---------2-0-2~---2-0-2--0----|
A|----------------------------------------------------------------------------------------------------------|
E|--1-3~----------------------1-3~----------------------0-1~----------------------0-0~----------------------|

[Chorus]
"I Am An Altered Beast!"
G|----------------|
D|----------------|
A|--7-------------|
E|-------3--6--5--|

[Drum Break]
(bass comes back in at about 4:23)

[Outro]
G|---------------------------------------------------------------------|
D|--2p0-2p0-2p0-----2p0-2p0-2p0-----2p0-2p0-2p0-----2p0-2p0-2p0-----2--|
A|---------------------------------------------------------------------|
E|--------------1~--------------5~--------------1~--------------5~-----|


************************************

| p   Pull-off
| ~   Vibrato

************************************
Suggest correction
Creating personal tab
Creating personal tab
You can edit any tab online and save it as your Personal.

You can edit, replace or remove any tab part or add personal notes – all changes will be seen only by you.

Personal tabs can be accessed anytime from any device, even offline.
Learn more »
Give kudos to tab author, rate the tab!
1 2 3 4 5
comments
print report bad tab
guest
You may want to rate the tab now too:
select rating
Wanna post a correction for this tab? Suggest correction