Oops, an error
Loading. Please wait.

Big Fig Wasp bass

1,012 views 15 this week
no commentswrite comment
1 2 3 4 5
3 more votes to show rating
add to favorites
×
Save as Personal and add changes to this tab that will be seen only by you. Learn more ›
×
You can save this tab as Personal to edit and correct it or add notes. All changes will be seen only by you. Learn more »
launch autoscroll
font size
0
reset
guitar tuner
edit
Autoscroll
slow
fast
+/-
esc
set tempo
stop
Author
Difficulty
[Intro]

G|-------------------------------------------------------------------|
D|----------------------5-7-9-7-5------------------------------------|
A|------7~----7-7~--5-7-----------7-4-4-4-4-4-4-4-4-4-4-4-4-5-5-5-5--|
E|--0-0-----0--------------------------------------------------------|

G|-------------------------------------------------------------------|
D|----------------------5-7-9-7-5------------------------------------|
A|------7~----7-7~--5-7-----------7-4-4-4-4-4-4-4-4-4-4-4-4-5-5-5-5--|
E|--0-0-----0--------------------------------------------------------|

G|-------------------------------------------------------------------|
D|----------------------5-7-9-7-5------------------------------------|
A|------7~----7-7~--5-7-----------7-4-4-4-4-4-4-4-4-4-4-4-4-5-5-5-5--|
E|--0-0-----0--------------------------------------------------------|

G|-------------------------------------------------------------------|
D|----------------------5-7-9-7-5------------------------------------|
A|------7~----7-7~--5-7-----------7-4-4-4-4-4-4-4-4-4-4-4-4-5-5-5-5--|
E|--0-0-----0--------------------------------------------------------|

G|-----------------------------------------------------------|
D|-----------------------------------------------------------|
A|------7--7-7---7-7----7--7~-------7--7-7---7-7----5-5-5-5--|
E|--0-0--------0------0---------0-0--------0------0----------|

G|-----------------------------------------------------------|
D|-----------------------------------------------------------|
A|------7--7-7---7-7----7--7~-------7--7-7---7-7----5-5-5-5--|
E|--0-0--------0------0---------0-0--------0------0----------|


[Verse]

G|---------------------------------------|
D|------2---4---5---7-----2---4---5---7--|
A|--0-0---0---0---0---0-0---0---0---0----|
E|---------------------------------------|

G|---------------------------------------|
D|------2---4---9---7-----2---4---5---7--|
A|--0-0---0---0---0---0-0---0---0---0----|
E|---------------------------------------|

G|---------------------------------------|
D|------2---4---5---7-----2---4---5---7--|
A|--0-0---0---0---0---0-0---0---0---0----|
E|---------------------------------------|

G|---------------------------------------|
D|------2---4---9---7-----2---4---5---7--|
A|--0-0---0---0---0---0-0---0---0---0----|
E|---------------------------------------|


[Post-Chorus]

G|------------------------------------------------|
D|------------------------------------------------|
A|------7--7-7---7-7----7------7--7-7---7-7----7--|
E|--0-0--------0------0----0-0--------0------0----|

G|-------------------------|
D|-------------------------|
A|------7--7-7---7-7----7--|
E|--0-0--------0------0----|


[Verse]

G|---------------------------------------|
D|------2---4---5---7-----2---4---5---7--|
A|--0-0---0---0---0---0-0---0---0---0----|
E|---------------------------------------|

G|---------------------------------------|
D|------2---4---9---7-----2---4---5---7--|
A|--0-0---0---0---0---0-0---0---0---0----|
E|---------------------------------------|

G|---------------------------------------|
D|------2---4---5---7-----2---4---5---7--|
A|--0-0---0---0---0---0-0---0---0---0----|
E|---------------------------------------|

G|---------------------------------------|
D|------2---4---9---7-----2---4---5---7--|
A|--0-0---0---0---0---0-0---0---0---0----|
E|---------------------------------------|


[Chorus]

G|-------------------------------------------------------------------|
D|----------------------5-7-9-7-5------------------------------------|
A|------7~----7-7~--5-7-----------7-4-4-4-4-4-4-4-4-4-4-4-4-5-5-5-5--|
E|--0-0-----0--------------------------------------------------------|

G|-------------------------------------------------------------------|
D|----------------------5-7-9-7-5------------------------------------|
A|------7~----7-7~--5-7-----------7-4-4-4-4-4-4-4-4-4-4-4-4-5-5-5-5--|
E|--0-0-----0--------------------------------------------------------|

G|-----------------------------------------------------------|
D|-----------------------------------------------------------|
A|------7--7-7---7-7----7--7~-------7--7-7---7-7----5-5-5-5--|
E|--0-0--------0------0---------0-0--------0------0----------|

G|-----------------------------------------------------|
D|-----------------------------------------------------|
A|------7--7-7---7-7----7--7~-------7--7-7---7-7----5--|
E|--0-0--------0------0---------0-0--------0------0----|

G|-----------------------------------------------------|
D|-----------------------------------------------------|
A|------7--7-7---7-7----7--7~-------7--7-7---7-7----5--|
E|--0-0--------0------0---------0-0--------0------0----|


[Verse]

G|---------------------------------------|
D|------2---4---5---7-----2---4---5---7--|
A|--0-0---0---0---0---0-0---0---0---0----|
E|---------------------------------------|

G|---------------------------------------|
D|------2---4---9---7-----2---4---5---7--|
A|--0-0---0---0---0---0-0---0---0---0----|
E|---------------------------------------|

G|---------------------------------------|
D|------2---4---5---7-----2---4---5---7--|
A|--0-0---0---0---0---0-0---0---0---0----|
E|---------------------------------------|

G|---------------------------------------|
D|------2---4---9---7-----2---4---5---7--|
A|--0-0---0---0---0---0-0---0---0---0----|
E|---------------------------------------|


[Chorus]

G|-------------------------------------------------------------------|
D|----------------------5-7-9-7-5------------------------------------|
A|------7~----7-7~--5-7-----------7-4-4-4-4-4-4-4-4-4-4-4-4-5-5-5-5--|
E|--0-0-----0--------------------------------------------------------|

G|-------------------------------------------------------------------|
D|----------------------5-7-9-7-5------------------------------------|
A|------7~----7-7~--5-7-----------7-4-4-4-4-4-4-4-4-4-4-4-4-5-5-5-5--|
E|--0-0-----0--------------------------------------------------------|

G|-----------------------------------------------------------|
D|-----------------------------------------------------------|
A|------7--7-7---7-7----7--7~-------7--7-7---7-7----5-5-5-5--|
E|--0-0--------0------0---------0-0--------0------0----------|

G|-----------------------------------------------------|
D|-----------------------------------------------------|
A|------7--7-7---7-7----7--7~-------7--7-7---7-7----5--|
E|--0-0--------0------0---------0-0--------0------0----|


[Guitar/Vocal Break]-bass comes back in around 2:01.

G|-----------------------------------------------------------|
D|-----------------------------------------------------------|
A|------7--7-7---7-7----7--7~-------7--7-7---7-7----5-5-5-5--|
E|--0-0--------0------0---------0-0--------0------0----------|

G|-----------------------------------------------------|
D|-----------------------------------------------------|
A|------7--7-7---7-7----7--7~-------7--7-7---7-7----5--|
E|--0-0--------0------0---------0-0--------0------0----|

G|-----------------------------------------------------------|
D|-----------------------------------------------------------|
A|------7--7-7---7-7----7--7~-------7--7-7---7-7----5-5-5-5--|
E|--0-0--------0------0---------0-0--------0------0----------|

G|-----------------------------------------------------|
D|-----------------------------------------------------|
A|------7--7-7---7-7----7--7~-------7--7-7---7-7----5--|
E|--0-0--------0------0---------0-0--------0------0----|


[Bridge]

G|---------------------------------------|
D|---------------------------------------|
A|------2---4---5---7-----2---4---5---7--|
E|--0-0---0---0---0---0-0---0---0---0----|

G|---------------------------------------|
D|---------------------------------------|
A|------2---4---9---7-----2---4---5---7--|
E|--0-0---0---0---0---0-0---0---0---0----|

G|---------------------------------------|
D|---------------------------------------|
A|------2---4---5---7-----2---4---5---7--|
E|--0-0---0---0---0---0-0---0---0---0----|

G|---------------------------------------|
D|---------------------------------------|
A|------2---4---9---7-----2---4---5---7--|
E|--0-0---0---0---0---0-0---0---0---0----|

G|---------------------------------------|
D|---------------------------------------|
A|------2---4---5---7-----2---4---5---7--|
E|--0-0---0---0---0---0-0---0---0---0----|

G|---------------------------------------|
D|---------------------------------------|
A|------2---4---9---7-----2---4---5---7--|
E|--0-0---0---0---0---0-0---0---0---0----|

G|---------------------------------------|
D|---------------------------------------|
A|------2---4---5---7-----2---4---5---7--|
E|--0-0---0---0---0---0-0---0---0---0----|

G|---------------------------------------|
D|---------------------------------------|
A|------2---4---9---7-----2---4---5---7--|
E|--0-0---0---0---0---0-0---0---0---0----|

G|---------------------------------------|
D|---------------------------------------|
A|------2---4---5---7-----2---4---5---7--|
E|--0-0---0---0---0---0-0---0---0---0----|

G|---------------------------------------|
D|---------------------------------------|
A|------2---4---9---7-----2---4---5---7--|
E|--0-0---0---0---0---0-0---0---0---0----|

G|---------------------------------------|
D|---------------------------------------|
A|------2---4---5---7-----2---4---5---7--|
E|--0-0---0---0---0---0-0---0---0---0----|

G|---------------------------------------|
D|---------------------------------------|
A|------2---4---9---7-----2---4---5---7--|
E|--0-0---0---0---0---0-0---0---0---0----|


[Chorus]

G|-------------------------------------------------------------------|
D|----------------------5-7-9-7-5------------------------------------|
A|------7~----7-7~--5-7-----------7-4-4-4-4-4-4-4-4-4-4-4-4-5-5-5-5--|
E|--0-0-----0--------------------------------------------------------|

G|-------------------------------------------------------------------|
D|----------------------5-7-9-7-5------------------------------------|
A|------7~----7-7~--5-7-----------7-4-4-4-4-4-4-4-4-4-4-4-4-5-5-5-5--|
E|--0-0-----0--------------------------------------------------------|

G|-----------------------------------------------------------|
D|-----------------------------------------------------------|
A|------7--7-7---7-7----7--7~-------7--7-7---7-7----5-5-5-5--|
E|--0-0--------0------0---------0-0--------0------0----------|

G|-----------------------------------------------------|
D|-----------------------------------------------------|
A|------7--7-7---7-7----7--7~-------7--7-7---7-7----5--|
E|--0-0--------0------0---------0-0--------0------0----|


[Post-Chorus]

G|--------------------------------------------------------7-9--|
D|--------------------------------------------------5-7-9------|
A|------7--7-7---7-7----7--7~-------7--7-7---7--5-7------------|
E|--0-0--------0------0---------0-0--------0-------------------|

G|--------------------------------------------------------7-9--|
D|--------------------------------------------------5-7-9------|
A|------7--7-7---7-7----7--7~-------7--7-7---7--5-7------------|
E|--0-0--------0------0---------0-0--------0-------------------|

G|--------------------------------------------------------7-9--|
D|--------------------------------------------------5-7-9------|
A|------7--7-7---7-7----7--7~-------7--7-7---7--5-7------------|
E|--0-0--------0------0---------0-0--------0-------------------|

G|-----------------------------------------------------|
D|-----------------------------------------------------|
A|------7--7-7---7-7----7--7~-------7--7-7---7-7----5--|
E|--0-0--------0------0---------0-0--------0------0----|


[Bridge]

G|-------------------------------------------------------------------|
D|----------------------5-7-9-7-5------------------------------------|
A|------7~----7-7~--5-7-----------7-4-4-4-4-4-4-4-4-4-4-4-4-5-5-5-5--|
E|--0-0-----0--------------------------------------------------------|

G|-------------------------------------------------------------------|
D|----------------------5-7-9-7-5------------------------------------|
A|------7~----7-7~--5-7-----------7-4-4-4-4-4-4-4-4-4-4-4-4-5-5-5-5--|
E|--0-0-----0--------------------------------------------------------|

G|-------------------------------------------------------------------|
D|----------------------5-7-9-7-5------------------------------------|
A|------7~----7-7~--5-7-----------7-4-4-4-4-4-4-4-4-4-4-4-4-5-5-5-5--|
E|--0-0-----0--------------------------------------------------------|

G|-------------------------------------------------------------------|
D|----------------------5-7-9-7-5------------------------------------|
A|------7~----7-7~--5-7-----------7-4-4-4-4-4-4-4-4-4-4-4-4-5-5-5-5--|
E|--0-0-----0--------------------------------------------------------|

G|--------------------------------------------------------7-9--|
D|--------------------------------------------------5-7-9------|
A|------7--7-7---7-7----7--7~-------7--7-7---7--5-7------------|
E|--0-0--------0------0---------0-0--------0-------------------|

G|-----------------------------------------------------|
D|-----------------------------------------------------|
A|------7--7-7---7-7----7--7~-------7--7-7---7-7----5--|
E|--0-0--------0------0---------0-0--------0------0----|


['Robot Stop' Chorus]- bass comes back in at about 4:07.

G|-----------------------------------------------|
D|-----------------------------------------------|
A|------7------7----7~-7-------7------7----7~-7--|
E|--0-0----0-0----0--------0-0----0-0----0-------|

G|----------------------------------------------------|
D|----------------------------------------------------|
A|------7------7--5/7-7-7-------7------7--10-10-10-9--|
E|--0-0----0-0--------------0-0----0-0----------------|

G|-------------------------------------------------------------------|
D|-------------------------------------------------------------------|
A|--0-0-0-0-0-0-0-0-2-2-2-2-2-2-2-2-3-3-3-3-3-3-4-4-5-5-5-5-5-5-6-6--|
E|-------------------------------------------------------------------|

G|-----------------------------------------------------------|
D|-----------------------------------------------------------|
A|------7--7-7---7-7----7--7~-------7--7-7---7-7----5-5-5-5--|
E|--0-0--------0------0---------0-0--------0------0----------|

G|-----------------------------------------------------|
D|-----------------------------------------------------|
A|------7--7-7---7-7----7--7~-------7--7-7---7-7----5--|
E|--0-0--------0------0---------0-0--------0------0----|


[Outro]

G|--------------------------------------------------|
D|--------------------------------------------------|
A|------7--7-7---7-7----7---5--5--5-5-5--5--5--5-5--|
E|--0-0--------0------0-----------------------------|

G|---------------------------------------------------|
D|---------------------------------------------------|
A|--3--3--3-3-3--3--3--3-3---1--1--1-1-1--1--1--1-1--|
E|---------------------------------------------------|

G|---------------------------------------------------|
D|---------------------------------------------------|
A|---------------------------------------------------|
E|--4--4--4-4-4--4--4--4-4---2--2--2-2-2--2--2--2-2--|

G|-------------------------|
D|-------------------------|
A|------7--7-7---7-7----7--|
E|--0-0--------0------0----|


"Nonagon Infinity opens the door..."

G|------------------------------------------------------|
D|--7--------------------------7------------------------|
A|----5-5---5-5-5---3-5-5-5------5-5---5-5-5---8-8-8-7--|
E|------------------------------------------------------|

G|------------------------------------------------------|
D|--7--------------------------7------------------------|
A|------5---5-5-5---3-5-5-5------5-5---5-5-5---8-8-8-7--|
E|----5-------------------------------------------------|


************************************

| /   Slide up
| ~   Vibrato

************************************

            
            
Suggest correction
Creating personal tab
Creating personal tab
You can edit any tab online and save it as your Personal.

You can edit, replace or remove any tab part or add personal notes – all changes will be seen only by you.

Personal tabs can be accessed anytime from any device, even offline.
Learn more »
Give kudos to tab author, rate the tab!
1 2 3 4 5
comments
print report bad tab
guest
You may want to rate the tab now too:
select rating
Wanna post a correction for this tab? Suggest correction