Oops, an error
Loading. Please wait.

Big Fig Wasp tab

484 views 33 this week
no commentswrite comment
1 2 3 4 5
x 4
add to favorites
×
Save as Personal and add changes to this tab that will be seen only by you. Learn more ›
×
You can save this tab as Personal to edit and correct it or add notes. All changes will be seen only by you. Learn more »
launch autoscroll
font size
0
reset
how to read this tab
guitar tuner
edit
Autoscroll
slow
fast
+/-
esc
set tempo
stop
About this tab version
This tab is based off of the album "Nonagon Infinity" by King Gizzard and the Lizard Wizard (https://www.youtube.com/watch?v=FLSge-ojxJc) Listen for the timing of a few riffs. Was this info helpful? Yes No
Tuning: E A D G B e

[Intro]
e|---------------------------------------------------------------------------|
B|---------------------------------------------------------------------------|
G|--------------------------------7------------------------------------------| (x4)
D|------7-9------7-9-------7-9------9-7--------------------------------------|
A|-7-10-----7-10------7-10------7--------------------------------------------|
E|---------------------------------------------------------------------------|

[ROBOT STOP]
e|---------------------------------------------------------------------------|
B|---------------------------------------------------------------------------|
G|---------------------------------------------------------------------------| (x2)
D|-9--9-9-9--9--9--9-9-9-9---9--9-9--9--9-7-7-7-7 ---------------------------|
A|-7--7-7-7--7--7--7-7-7-7---7--7-7--7--7-5-5-5-5----------------------------|
E|---------------------------------------------------------------------------|

[Verse]
e|---------------------------------------------------------------------------|
B|---------------------------------------------------------------------------|
G|-------2--------2------4-2--------2--------2--------2------4-2--------2----|
D|-2-4-5-0--2-4-5-0--2-4-0-0--2-4-5-0--2-4-5-0--2-4-5-0--2-4-0-0--2-4-5-0----|
A|-0-0-0----0-0-0----0-0------0-0------0-0------0-0------0-0------0-0--------|
E|---------------------------------------------------------------------------|

[ROBOT STOP]
e|---------------------------------------------------------------------------|
B|-12h15-12h15-12h15-12h15-12h15-12h15-12h15-12h15---------------------------|
G|---------------------------------------------------------------------------|
D|---------------------------------------------------------------------------|
A|---------------------------------------------------------------------------|
E|---------------------------------------------------------------------------|

e|-----------------------------------------------------------------------------------------|
B|-10h13-10h13-10h13-10h13-10h13-10h13-10h13-10h13-8h11-8h11-8h11-8h11-8h11-8h11-8h11-8h11-|
G|-----------------------------------------------------------------------------------------|
D|-----------------------------------------------------------------------------------------|
A|-----------------------------------------------------------------------------------------|
E|-----------------------------------------------------------------------------------------|

[Verse]
e|---------------------------------------------------------------------------|
B|---------------------------------------------------------------------------|
G|-------2--------2------4-2--------2--------2--------2------4-2--------2----|
D|-2-4-5-0--2-4-5-0--2-4-0-0--2-4-5-0--2-4-5-0--2-4-5-0--2-4-0-0--2-4-5-0----|
A|-0-0-0----0-0-0----0-0------0-0------0-0------0-0------0-0------0-0--------|
E|---------------------------------------------------------------------------|

[Chorus]
e|---------------------------------------------------------------------------|
B|---------------------------------------------------------------------------|
G|--------------------------------7------------------------------------------| (x2)
D|------7-9------7-9-------7-9------9-7--------------------------------------|
A|-7-10-----7-10------7-10------7--------------------------------------------|
E|---------------------------------------------------------------------------|

[Bridge]
e|---------------------------------------------------------------------------|
B|---------------------------------------------------------------------------|
G|-4-----5-----7-----8-------------------------------------------------------|
D|---6-----7-----9-----10----------------------------------------------------|
A|---------------------------------------------------------------------------|
E|---------------------------------------------------------------------------|

[Verse]
e|---------------------------------------------------------------------------|
B|---------------------------------------------------------------------------|
G|-------2--------2------4-2--------2--------2--------2------4-2--------2----|
D|-2-4-5-0--2-4-5-0--2-4-0-0--2-4-5-0--2-4-5-0--2-4-5-0--2-4-0-0--2-4-5-0----|
A|-0-0-0----0-0-0----0-0------0-0------0-0------0-0------0-0------0-0--------|
E|---------------------------------------------------------------------------|

[Chorus]
e|---------------------------------------------------------------------------|
B|---------------------------------------------------------------------------|
G|--------------------------------7------------------------------------------| (x2)
D|------7-9------7-9-------7-9------9-7--------------------------------------|
A|-7-10-----7-10------7-10------7--------------------------------------------|
E|---------------------------------------------------------------------------|

e|---------------------------------------------------------------------------|
B|---------------------------------------------------------------------------|
G|--------------------------------7------------------------------------------|
D|------7-9------7-9-------7-9------9-7-------7------------------------------|
A|-7-10-----7-10------7-10------7--------7-10--------------------------------|
E|---------------------------------------------------------------------------|

[Bridge]
e|---------------------------------------------------------------------------|
B|---------------------------------------------------------------------------|
G|-4-----5-----7-----8-------------------------------------------------------|
D|---6-----7-----9-----10----------------------------------------------------|
A|---------------------------------------------------------------------------|
E|---------------------------------------------------------------------------|

[WAH SOLO]
e|---------------------------------------------------------------------------|
B|-12-12-10-9----------------------------------------------------------------|
G|-------------9-9-9-11--9-9-7-----------------------------------------------|
D|-----------------------------9--9-9-7-6------------------------------------|
A|---------------------------------------------------------------------------|
E|---------------------------------------------------------------------------|

e|-12-12-10------------------------------------------------------------------|
B|----------12--12-12-10-9---------------------------------------------------|
G|--------------------------9-9-9-11--9-9-7----------------------------------| (x5)
D|------------------------------------------9--------------------------------|
A|---------------------------------------------------------------------------|
E|---------------------------------------------------------------------------|

[Chorus]
e|---------------------------------------------------------------------------|
B|---------------------------------------------------------------------------|
G|--------------------------------7------------------------------------------| (x2)
D|------7-9------7-9-------7-9------9-7--------------------------------------|
A|-7-10-----7-10------7-10------7--------------------------------------------|
E|---------------------------------------------------------------------------|

[Bridge ExT.]
e|-------------------------------------------------------------------------------------------------------|
B|-------------------------------------------------------------------------------------------------------|
G|-4-----5-----7-----8-----13-----14-----16-----18-----19-----17-----16-----14-----13-----7-----5-----2--|
D|---6-----7-----9-----10-----15-----16-----18-----20-----21-----19-----18-----16-----15----9-----7-----4|
A|-------------------------------------------------------------------------------------------------------|
E|-------------------------------------------------------------------------------------------------------|

[Chorus]
e|---------------------------------------------------------------------------|
B|---------------------------------------------------------------------------|
G|--------------------------------7------------------------------------------| (x4)
D|------7-9------7-9-------7-9------9-7--------------------------------------|
A|-7-10-----7-10------7-10------7--------------------------------------------|
E|---------------------------------------------------------------------------|

[ROBOT STOP]
e|---------------------------------------------------------------------------|
B|---------------------------------------------------------------------------|
G|---------------------------------------------------------------------------| (x2)
D|-9--9-9-9--9--9--9-9-9-9---9--9-9--9--9-7-7-7-7----------------------------|
A|-7--7-7-7--7--7--7-7-7-7---7--7-7--7--7-5-5-5-5----------------------------|
E|---------------------------------------------------------------------------|

e|---------------------------------------------------------------------------|
B|---------------------------------------------------------------------------|
G|----------7-9-----------7-9--9-7---7------9-7------------------------------| (x2)
D|------7-9-----------7-9----------9---9-9------9-7--------------------------|
A|-7-10----------7-10-------------------------------10-7---------------------|
E|---------------------------------------------------------------------------|

e|---------------------------------------------------------------|
B|---------------------------------------------------------------|
G|-----------------------------------------------------9b--------|
D|-2-2-2-2--4-4-4-4--5-5-5-5--7-7-7-7----------------------------|
A|-0-0-0-0--2-2-2-2--3-3-3-3--5-5-5-5----------------------------|
E|---------------------------------------------------------------|

[Outro]
e|---------------------------------------------------------------------------|
B|-12h15-12h15-12h15-12h15-12h15-12h15-12h15-12h15---------------------------|
G|---------------------------------------------------------------------------|
D|---------------------------------------------------------------------------|
A|---------------------------------------------------------------------------|
E|---------------------------------------------------------------------------|

e|-----------------------------------------------------------------------------------------|
B|-10h13-10h13-10h13-10h13-10h13-10h13-10h13-10h13-8h11-8h11-8h11-8h11-8h11-8h11-8h11-8h11-|
G|-----------------------------------------------------------------------------------------|
D|-----------------------------------------------------------------------------------------|
A|-----------------------------------------------------------------------------------------|
E|-----------------------------------------------------------------------------------------|

e|------------------------------------------------------------------------------------------------------|
B|--6h9-6h9-6h9-6h9-6h9-6h9-6h9-6h9---4h7-4h7-4h7-4h7-4h7-4h7-4h7-4h7-2h5-2h5-2h5-2h5-2h5-2h5-2h5-2h5---|
G|------------------------------------------------------------------------------------------------------|
D|------------------------------------------------------------------------------------------------------|
A|------------------------------------------------------------------------------------------------------|
E|------------------------------------------------------------------------------------------------------|

e|---------------------------------------------------------------|
B|-0h3-0h3-0h3-0h3-0h3-0h3-0h3-0h3-------------------------------|
G|---------------------------------------------------------------|
D|---------------------------------------------------------------|
A|---------------------------------------------------------------|
E|---------------------------------------------------------------|

e|----------------------------------------------------------------------------------------------------|
B|----------------------------------------------------------------------------------------------------|
G|----------------------------------------------------------------------------------------------------|
D|----------------------------------------------------------------------------------------------------|
A|-7-7-7-7-7-7-7-5-5-7-7---7-7-7-7-7-7-7-10-10-7-7---7--7-7-7--7-7-5-5-7-7---7-7-7-7-7-7-7-10-10-9-9--|
E|----------------------------------------------------------------------------------------------------|


************************************

| h   Hammer-on
| b   Bend

************************************

            
            
Suggest correction
Creating personal tab
Creating personal tab
You can edit any tab online and save it as your Personal.

You can edit, replace or remove any tab part or add personal notes – all changes will be seen only by you.

Personal tabs can be accessed anytime from any device, even offline.
Learn more »
comments
print report bad tab
guest
You may want to rate the tab now too:
select rating
Wanna post a correction for this tab? Suggest correction