Oops, an error
Loading. Please wait.

Billabong Valley intro tab

796 views 102 this week
3 commentsread comments
1 2 3 4 5
x 3
add to favorites
×
Save as Personal and add changes to this tab that will be seen only by you. Learn more ›
×
You can save this tab as Personal to edit and correct it or add notes. All changes will be seen only by you. Learn more »
launch autoscroll
font size
0
reset
how to read this tab
guitar tuner
edit
Autoscroll
slow
fast
+/-
esc
set tempo
stop
King Gizzard & The Lizard Wizard - Flying Microtonal Banana
 
[Intro]
e|---------------------------------------------|
B|--3--3--3-----1------------------------------|
G|-----------3-----2--3--0--0--0-----0---------|
D|--------------------------------3------------|
A|---------------------------------------------|
E|---------------------------------------------|
 
(This is the best effort I could make at tabbing the microtonal part, which is obviously microtonal and thus
impossible to play on a regularly-tuned guitar.)


e|--10--10--8--10--6--8--5--6--3--3--3--5--3---|
B|---------------------------------------------|
G|---------------------------------------------|
D|---------------------------------------------|
A|---------------------------------------------|
E|---------------------------------------------|
 
(This is the beginning of the ominous part preceded by "shot in the back by morning," listen out for it.)

e|---------------------------------------------|
B|--3--3--1--3-----1---------------------------|
G|--------------3-----2--3--0--0--0-----0------|
D|-----------------------------------3---------|
A|---------------------------------------------|
E|---------------------------------------------|

            
            
Suggest correction
Creating personal tab
Creating personal tab
You can edit any tab online and save it as your Personal.

You can edit, replace or remove any tab part or add personal notes – all changes will be seen only by you.

Personal tabs can be accessed anytime from any device, even offline.
Learn more »
Give kudos to tab author, rate the tab!
1 2 3 4 5
comments
print report bad tab
3 comments total.
0 reply
xxYABOIxx 35 Jun 26, 2017 11:04 PM, edited on June 27 2017, 03:05 am

hey mate i tried tabbing this out a while ago too.here is the "Bloodthirsty tendencies" part;e|------------------------------------------6----5--3-------|B|--------5----6--3--------5----6---------------------------|G|---------------------------------5------------------------|D|----------------------------------------------------------|A|----------------------------------------------------------|D|----------------------------------------------------------|this is the likely incorrect half assed chrous you might be able to make something out of (note the drop D tuning)e|-------3-----------1-----------------------------------------------|B|-------3-----------1-----------------------------------------------|G|------(0)----------------------------------0--2--0-----------------|D|-------------------------------------------------------------------|A|----------------------------------0--1--3--------------------------|D|-5----------5--3-------3--0----5-----------------------------------|hope this helps somehow

0 reply
xxYABOIxx 35 Jun 26, 2017 11:06 PM

sorry, i formatted my comment wrong ^^

hey mate i tried tabbing this out a while ago too.here is the "Bloodthirsty tendencies" part

e|------------------------------------------6----5--3-------|
B|--------5----6--3--------5----6---------------------------|
G|---------------------------------5------------------------|
D|----------------------------------------------------------|
A|----------------------------------------------------------|
D|----------------------------------------------------------|

this is the likely incorrect half assed chrous you might be able to make something out of (note the drop D tuning)
e|-------3-----------1-----------------------------------------------|
B|-------3-----------1-----------------------------------------------|
G|------(0)----------------------------------0--2--0-----------------|
D|-------------------------------------------------------------------|
A|----------------------------------0--1--3--------------------------|
D|-5----------5--3-------3--0----5-----------------------------------|

hope this helps somehow. nice work on what you have already!

0 reply
akuel 36 Jul 24, 2017 09:38 AM

I think the second part sounds better like this:
e|--10--10--8--10--6--8--5--6--3--3--3--4--3---|
B|---------------------------------------------|
G|---------------------------------------------|
D|---------------------------------------------|
A|---------------------------------------------|
E|---------------------------------------------|

guest
You may want to rate the tab now too:
select rating
Wanna post a correction for this tab? Suggest correction