Oops, an error
Loading. Please wait.

Digital Black tab

799 views 36 this week
no commentswrite comment
1 2 3 4 5
x 3
add to favorites
×
Save as Personal and add changes to this tab that will be seen only by you. Learn more ›
×
You can save this tab as Personal to edit and correct it or add notes. All changes will be seen only by you. Learn more »
launch autoscroll
font size
0
reset
how to read this tab
guitar tuner
edit
Autoscroll
slow
fast
+/-
esc
set tempo
stop
About this tab version
Track 17 from 'Murder of the Universe'. There are actually two guitars in the studio version, so this is a slight simplification. Doesn't contain Stu's high notes in there, too. Note (for beginners): power chords aren't extremely necessary. You can play with only the E string if you feel better. Was this info helpful? Yes No
[Intro]
       Di-gi-tal,                 oh!
e|----------------------------|
B|----------------------------|
G|----------------------------|
D|----8-----7-----5-------8---|
A|----8-----7-----5-------8---|
E|----6-x-x-5-x-x-3-------6---|


[Verse 1]
          Despondent, lugubrious, no future
e|-----------------------------------------------------------|
B|-----------------------------------------------------------|
G|-----------------------------------------------------------|
D|-----------------------------------------------------------|
A|-----------------------------------------------------------|
E|----0-0-12-12-10-0-0-12-12-10-0-0-12-13-10---6-5-6-5-6-5---|

          We turned our bodies to computer
e|---------------------------------------------------------|
B|---------------------------------------------------------|
G|---------------------------------------------------------|
D|---------------------------------------------------------|
A|---------------------------------------------------------|
E|----0-0-12-12-10-0-0-12-13-10-0-0-12-8-7---6-5-6-5-6-5---|

          We are out of nature, abuser
e|--------------------------------------------------|
B|--------------------------------------------------|
G|--------------------------------------------------|
D|--------------------------------------------------|
A|----0-0-7-8-10-0-0-12-8-7---7-8-5-----------------|
E|------------------------------------6-5-6-5-6-5---|

         No future, computer, abuser
e|--------------------------------------------------|
B|--------------------------------------------------|
G|--------------------------------------------------|
D|--------8-8-5-----8-8-5-----8-8-5-----------------|
A|--------8-8-5-----8-8-5-----8-8-5-----------------|
E|----0-0-6-6-3-0-0-6-6-3-0-0-6-6-3---6-5-6-5-6-5---|

[Chorus 1]
 I can tell every day I stay, all the whiteness turns to grey
e|---------------------------------------------|
B|---------------------------------------------|
G|---------------------------------------------|
D|----5-5-4---4-4-7-5-4---4-4-5-4--4-4-7-5-4---|
A|----5-5-4---4-4-7-5-4---4-4-5-4--4-4-7-5-4---|
E|----3-3-2---2-2-5-3-2---2-2-3-2--2-2-5-3-2---|

 All the grey to Cimmerian, as the black is setting in
e|---------------------------------------------------------------|
B|---------------------------------------------------------------|
G|---------------------------------------------------------------|
D|----5-5-4---4-4-7-5-4---4-4-5-4--4-4-7-5-4---------------------|
A|----5-5-4---4-4-7-5-4---4-4-5-4--4-4-7-5-4---------------------|
E|----3-3-2---2-2-5-3-2---2-2-3-2--2-2-5-3-2---x-x-x-x-x-x-x-x---|

  Digital black, oh
e|-------------------|
B|-------------------|
G|-------------------|
D|----8-7-5-2----8---|
A|----8-7-5-2----8---|
E|----6-5-3-0----6---|

[Verse 2]
          We've sunken into our illusion
e|-----------------------------------------------------------|
B|-----------------------------------------------------------|
G|-----------------------------------------------------------|
D|-----------------------------------------------------------|
A|-----------------------------------------------------------|
E|----0-0-12-12-10-0-0-12-12-10-0-0-12-13-10---6-5-6-5-6-5---|

          We fashion colossal confusion
e|---------------------------------------------------------|
B|---------------------------------------------------------|
G|---------------------------------------------------------|
D|---------------------------------------------------------|
A|---------------------------------------------------------|
E|----0-0-12-12-10-0-0-12-13-10-0-0-12-8-7---6-5-6-5-6-5---|

          I am the word of the last human
e|--------------------------------------------------|
B|--------------------------------------------------|
G|--------------------------------------------------|
D|--------------------------------------------------|
A|----0-0-7-8-10-0-0-12-8-7---7-8-5-----------------|
E|------------------------------------6-5-6-5-6-5---|

         Illusion, confusion, last human
e|--------------------------------------------------|
B|--------------------------------------------------|
G|--------------------------------------------------|
D|--------8-8-5-----8-8-5-----8-8-5-----------------|
A|--------8-8-5-----8-8-5-----8-8-5-----------------|
E|----0-0-6-6-3-0-0-6-6-3-0-0-6-6-3---6-5-6-5-6-5---|

[Chorus 2]
 I can see it all around the land, I can feel it in the back of my hand
e|---------------------------------------------|
B|---------------------------------------------|
G|---------------------------------------------|
D|----5-5-4---4-4-7-5-4---4-4-5-4--4-4-7-5-4---|
A|----5-5-4---4-4-7-5-4---4-4-5-4--4-4-7-5-4---|
E|----3-3-2---2-2-5-3-2---2-2-3-2--2-2-5-3-2---|

 I can hear a roaring silence, of the murky [?]
e|---------------------------------------------------------------|
B|---------------------------------------------------------------|
G|---------------------------------------------------------------|
D|----5-5-4---4-4-7-5-4---4-4-5-4--4-4-7-5-4---------------------|
A|----5-5-4---4-4-7-5-4---4-4-5-4--4-4-7-5-4---------------------|
E|----3-3-2---2-2-5-3-2---2-2-3-2--2-2-5-3-2---x-x-x-x-x-x-x-x---|

 I've heard the dark beast has said that the world is like a brittle ant
e|---------------------------------------------|
B|---------------------------------------------|
G|---------------------------------------------|
D|----4-4-3---3-3-6-4-3---3-3-4-3--3-3-6-4-3---|
A|----4-4-3---3-3-6-4-3---3-3-4-3--3-3-6-4-3---|
E|----2-2-1---1-1-4-2-1---1-1-2-1--1-1-4-2-1---|

 He can crush it with only breath, and he can bring a black wave of death
e|---------------------------------------------------------------|
B|---------------------------------------------------------------|
G|---------------------------------------------------------------|
D|----4-4-3---3-3-6-4-3---3-3-4-3--3-3-6-4-3---------------------|
A|----4-4-3---3-3-6-4-3---3-3-4-3--3-3-6-4-3---------------------|
E|----2-2-1---1-1-4-2-1---1-1-2-1--1-1-4-2-1---x-x-x-x-x-x-x-x---|

  Digital black
e|--------------|
B|--------------|
G|--------------|
D|----8-7-5-0---|
A|----8-7-5-0---|
E|----6-5-3-0---|

[Han-Tyumi]
 The last who feels pain from the wound...                                               oh!
e|-------------------------------------------------------------------------------------------|
B|----12-10-12---10---12-10-----------------------------10-12-10-----------------------------|
G|--------------------------12-9------9-12--------12-------------12---11-9-------------------|
D|---------------------------------12------12---9----12--------------------12-10-9-------8---|
A|---------------------------------------------------------------------------------------8---|
E|---------------------------------------------------------------------------------------6---|

[Bridge]
    No future, computer, abuser, digital black
e|----------------------------------------------|
B|----------------------------------------------|
G|----------------------------------------------|
D|--------8-8-5-----8-8-5-----8-8-5---8-7-5-2---|
A|--------8-8-5-----8-8-5-----8-8-5---8-7-5-2---|
E|----0-0-6-6-3-0-0-6-6-3-0-0-6-6-3---6-5-3-0---|

    Illusion, confusion, last human, digi-digi-digi
e|--------------------------------------------------|
B|--------------------------------------------------|
G|--------------------------------------------------|
D|--------8-8-5-----8-8-5-----8-8-5-----------------|
A|--------8-8-5-----8-8-5-----8-8-5-----------------|
E|----0-0-6-6-3-0-0-6-6-3-0-0-6-6-3---6-5-6-5-6-5---|

[Chorus 1]
 I can tell every day I stay, all the whiteness turns to grey
e|---------------------------------------------|
B|---------------------------------------------|
G|---------------------------------------------|
D|----5-5-4---4-4-7-5-4---4-4-5-4--4-4-7-5-4---|
A|----5-5-4---4-4-7-5-4---4-4-5-4--4-4-7-5-4---|
E|----3-3-2---2-2-5-3-2---2-2-3-2--2-2-5-3-2---|

 All the grey to Cimmerian, as the black is setting in
e|---------------------------------------------------------------|
B|---------------------------------------------------------------|
G|---------------------------------------------------------------|
D|----5-5-4---4-4-7-5-4---4-4-5-4--4-4-7-5-4---------------------|
A|----5-5-4---4-4-7-5-4---4-4-5-4--4-4-7-5-4---------------------|
E|----3-3-2---2-2-5-3-2---2-2-3-2--2-2-5-3-2---x-x-x-x-x-x-x-x---|

       Di-gi-tal
e|--------------------|
B|--------------------|
G|--------------------|
D|----8-----7-----5---|
A|----8-----7-----5---|
E|----6-x-x-5-x-x-3---|


************************************

| x   Dead note

************************************

            
            
Suggest correction
Creating personal tab
Creating personal tab
You can edit any tab online and save it as your Personal.

You can edit, replace or remove any tab part or add personal notes – all changes will be seen only by you.

Personal tabs can be accessed anytime from any device, even offline.
Learn more »
Give kudos to tab author, rate the tab!
1 2 3 4 5
comments
print report bad tab
guest
You may want to rate the tab now too:
select rating
Wanna post a correction for this tab? Suggest correction