Oops, an error
Loading. Please wait.
835 views 15 this week
no commentswrite comment
1 2 3 4 5
2 more votes to show rating
add to favorites
×
Save as Personal and add changes to this tab that will be seen only by you. Learn more ›
×
You can save this tab as Personal to edit and correct it or add notes. All changes will be seen only by you. Learn more »
launch autoscroll
font size
0
reset
guitar tuner
edit
Autoscroll
slow
fast
+/-
esc
set tempo
stop
First off, this song (and whole album) is actually played on
microtonal instruments. Unfortunately, i don't own a microtonal 
bass. With that said, I am tabbing them out in standard tuning 
to the best of my abilities. The trick i found is, if the note
sounds a little off, slightly bend the note and it gives it the
sound of being off a little, or microtonal. Hope that helps!


[Intro]-bass enters after guitar riff at about 0:11.

G|-------------------------------------------------------|
D|-------------------------------------------------------|
A|--4~----4-7-5b-4~----4-7-5b-4~----4-7-5b-4~----4-7-5b--|
E|-------------------------------------------------------|

"Doo, Doo, Doo, Doom City"
G|-----------------------------------------------------------------|
D|-----------------------------------------------------------------|
A|--9-9-9--9--------9-9-9--9--------9-9-9--9--------9-9-9--9-------|
E|------------7-7-------------7-7-------------7-7-------------7-7--|

G|-----------------------------------------------------------------|
D|-----------------------------------------------------------------|
A|--9-9-9--9--------9-9-9--9--------9-9-9--9--------9-9-9--9-------|
E|------------7-7-------------7-7-------------7-7-------------7-7--|


[Verse]

G|-----------------------------------------------------------------|
D|-----------------------------------------------------------------|
A|--9-9-9--9--------9-9-9--9--------9-9-9--9--------9-9-9--9-------|
E|------------7-7-------------7-7-------------7-7-------------7-7--|

G|-----------------------------------------------------------------|
D|-----------------------------------------------------------------|
A|--9-9-9--9--------9-9-9--9--------9-9-9--9--------9-9-9--9-------|
E|------------7-7-------------7-7-------------7-7-------------7-7--|

G|----------------------------------------------|
D|------------------7-9b------------------7-9b--|
A|----------7-9-10b---------------7-9-10b-------|
E|--7-9-10b---------------7-9-10b---------------|

G|----------------------------------------------------------------|
D|----------------------------------------------------------------|
A|--9-9-9--9--------9-9-9--9--------9-9-9--9--------9-9-9--9--9\--|
E|------------7-7-------------7-7-------------7-7-----------------|


[Chorus]

G|-------------------------------------------------------|
D|-------------------------------------------------------|
A|--4~----4-7-5b-4~----4-7-5b-4~----4-7-5b-4~----4-7-5b--|
E|-------------------------------------------------------|

G|-------------------------------------------------------|
D|-------------------------------------------------------|
A|--4~----4-7-5b-4~----4-7-5b-4~----4-7-5b-4~----4-7-5b--|
E|-------------------------------------------------------|

G|-------------------------------------------------------|
D|-------------------------------------------------------|
A|--4~----4-7-5b-4~----4-7-5b-4~----4-7-5b-4~----4-7-5b--|
E|-------------------------------------------------------|

"Doo, Doo, Doo, Doom City"
G|-----------------------------------------------------------------|
D|-----------------------------------------------------------------|
A|--9-9-9--9--------9-9-9--9--------9-9-9--9--------9-9-9--9-------|
E|------------7-7-------------7-7-------------7-7-------------7-7--|

G|-----------------------------------------------------------------|
D|-----------------------------------------------------------------|
A|--9-9-9--9--------9-9-9--9--------9-9-9--9--------9-9-9--9-------|
E|------------7-7-------------7-7-------------7-7-------------7-7--|


[Verse]

G|-----------------------------------------------------------------|
D|-----------------------------------------------------------------|
A|--9-9-9--9--------9-9-9--9--------9-9-9--9--------9-9-9--9-------|
E|------------7-7-------------7-7-------------7-7-------------7-7--|

G|-----------------------------------------------------------------|
D|-----------------------------------------------------------------|
A|--9-9-9--9--------9-9-9--9--------9-9-9--9--------9-9-9--9-------|
E|------------7-7-------------7-7-------------7-7-------------7-7--|

G|----------------------------------------------|
D|------------------7-9b------------------7-9b--|
A|----------7-9-10b---------------7-9-10b-------|
E|--7-9-10b---------------7-9-10b---------------|

G|----------------------------------------------------------------|
D|----------------------------------------------------------------|
A|--9-9-9--9--------9-9-9--9--------9-9-9--9--------9-9-9--9--9\--|
E|------------7-7-------------7-7-------------7-7-----------------|


[Outro]

G|-------------------------------------------------------|
D|-------------------------------------------------------|
A|--4~----4-7-5b-4~----4-7-5b-4~----4-7-5b-4~----4-7-5b--|
E|-------------------------------------------------------|

G|-------------------------------------------------------|
D|-------------------------------------------------------|
A|--4~----4-7-5b-4~----4-7-5b-4~----4-7-5b-4~----4-7-5b--|
E|-------------------------------------------------------|

G|-------------------------------------------------------|
D|-------------------------------------------------------|
A|--4~----4-7-5b-4~----4-7-5b-4~----4-7-5b-4~----4-7-5b--|
E|-------------------------------------------------------|

G|-------------------------------------------------------|
D|-------------------------------------------------------|
A|--4~----4-7-5b-4~----4-7-5b-4~----4-7-5b-4~----4-7-5b--|
E|-------------------------------------------------------|

G|-------------------------------------------------------|
D|-------------------------------------------------------|
A|--4~----4-7-5b-4~----4-7-5b-4~----4-7-5b-4~----4-7-5b--|
E|-------------------------------------------------------|

G|-----------------------------------------------------------|
D|-----------------------------------------------------------|
A|--4~----4-7-5b-4~----4-7-5b-4~----4-7-5b-4~----4-7-5b-4~~--|
E|-----------------------------------------------------------|


************************************

| b   Bend
| \   Slide down
| ~   Vibrato

************************************

            
            
Suggest correction
Creating personal tab
Creating personal tab
You can edit any tab online and save it as your Personal.

You can edit, replace or remove any tab part or add personal notes – all changes will be seen only by you.

Personal tabs can be accessed anytime from any device, even offline.
Learn more »
Give kudos to tab author, rate the tab!
1 2 3 4 5
comments
print report bad tab
guest
You may want to rate the tab now too:
select rating
Wanna post a correction for this tab? Suggest correction