Oops, an error
Loading. Please wait.
1,147 views 57 this week
2 commentsread comments
1 2 3 4 5
3 more votes to show rating
add to favorites
×
Save as Personal and add changes to this tab that will be seen only by you. Learn more ›
×
You can save this tab as Personal to edit and correct it or add notes. All changes will be seen only by you. Learn more »
launch autoscroll
font size
0
reset
how to read this tab
guitar tuner
edit
Autoscroll
slow
fast
+/-
esc
set tempo
stop
my first tab, probably did a few things wrong. yet to add the licks that play during the last chorus.
sorry for my poor wording. if you listen to the song, you'll probably get it.

Tuning: C# F# B E G# C#

[Intro / Main Riff / Chorus]
C#|----------------------------------------------------------|
G#|----------------------------------------------------------| play this x4 (without the first open note
E |----------------------------------------------------------| after the first time you play it - if that 
B |----------------------------------------------------------| makes sense..)
F#|----------------------------------------------------------| 
C#|-0-----0--3--2--0-----------------------------------------| then play it x5 (with wah wah)

[Do-do-do doom city]
 
C#|----------------------------------------------------------|
G#|----------------------------------------------------------|
E |----------------------------------------------------------| x8
B |----7-----7-----7-----7-----------------------------------| 
F#|-0-----0-----0-----0--------------------------------------|
C#|----------------------------------------------------------|

[Verse]
   I think I'll die...
C#|----------------------------------------------------------|
G#|------5---------------------------------------------------|
E |-7-------7--5----7--5p-4p--2----2--0--2-------------------| 
B |----------------------------------------------------------| 
F#|----------------------------------------------------------|
C#|----------------------------------------------------------|

  He, empyrean...
C#|----------------------------------------------------------|
G#|------5---------------------------------------------------|
E |-7-------7--5----7--5p-4p--2----2--4--2-------------------| 
B |----------------------------------------------------------| 
F#|----------------------------------------------------------|
C#|----------------------------------------------------------|


 Sky will crucify...
C#|----------------------------------------------------------|
G#|------5---------------------------------------------------|
E |-7-------7--5----7--5p-4p--2----2--0--2-------------------| 
B |----------------------------------------------------------| 
F#|----------------------------------------------------------|
C#|----------------------------------------------------------|

  I think I'll die (again..)
C#|----------------------------------------------------------|
G#|------5---------------------------------------------------|
E |-7-------7--5----7--5p-4p--2----2--4--2-------------------| 
B |----------------------------------------------------------| 
F#|----------------------------------------------------------|
C#|----------------------------------------------------------|

[CHORUS]
(similar to intro)
C#|----------------------------------------------------------|
G#|----------------------------------------------------------|
E |----------------------------------------------------------| play this x5 with wah wah (without the first 
B |----------------------------------------------------------| open note after the first time you play it)
F#|----------------------------------------------------------| 
C#|-0-----0--3--2--0-----------------------------------------| 


  Doom                 Ci -            ty
C#|------------------------------------------------------------------|
G#|------------------------------------------------------------------|
E |-0----------------------------------------------------------------| 
B |---------------------4----------------2---------------------------| x 2
F#|------------------------------------------------------------------| 
C#|-------0--3--2--0-------0--3--2--0-------0--3--2--0-------0--3--2-| 


[Do-do-do doom city]
 
C#|----------------------------------------------------------|
G#|----------------------------------------------------------|
E |----------------------------------------------------------| x8
B |----7-----7-----7-----7-----------------------------------| 
F#|-0-----0-----0-----0--------------------------------------|
C#|----------------------------------------------------------|

[Verse 2] 
  Spark in firmament...
C#|----------------------------------------------------------|
G#|------5---------------------------------------------------|
E |-7-------7--5----7--5p-4p--2----2--0--2-------------------| 
B |----------------------------------------------------------| 
F#|----------------------------------------------------------|
C#|----------------------------------------------------------|

  He, disorients...
C#|----------------------------------------------------------|
G#|------5---------------------------------------------------|
E |-7-------7--5----7--5p-4p--2----2--4--2-------------------| 
B |----------------------------------------------------------| 
F#|----------------------------------------------------------|
C#|----------------------------------------------------------|


 Charged with particles...
C#|----------------------------------------------------------|
G#|------5---------------------------------------------------|
E |-7-------7--5----7--5p-4p--2----2--0--2-------------------| 
B |----------------------------------------------------------| 
F#|----------------------------------------------------------|
C#|----------------------------------------------------------|

  Unbelievable...
C#|----------------------------------------------------------|
G#|------5---------------------------------------------------|
E |-7-------7--5----7--5p-4p--2----2--4--2-------------------| 
B |----------------------------------------------------------| 
F#|----------------------------------------------------------|
C#|----------------------------------------------------------|

[Chorus 2]
C#|----------------------------------------------------------|
G#|----------------------------------------------------------|
E |----------------------------------------------------------| play this x8 w/ wah wah (same thing as before) 
B |----------------------------------------------------------| 
F#|----------------------------------------------------------| 
C#|-0-----0--3--2--0-----------------------------------------| 

  Doom                 Ci -            ty
C#|------------------------------------------------------------------|
G#|------------------------------------------------------------------|
E |-0----------------------------------------------------------------| 
B |---------------------4----------------2---------------------------| x 4
F#|------------------------------------------------------------------| 
C#|-------0--3--2--0-------0--3--2--0-------0--3--2--0-------0--3--2-| 

[Outro]
C#|----------------------------------------------------------|
G#|----------------------------------------------------------|
E |----------------------------------------------------------|  ring the last note out into Nuclear Fusion
B |----------------------------------------------------------| 
F#|----------------------------------------------------------| 
C#|-0--3--2--0-----------------------------------------------| 

~~~~~

p = Pull off

            
            
Suggest correction
Creating personal tab
Creating personal tab
You can edit any tab online and save it as your Personal.

You can edit, replace or remove any tab part or add personal notes – all changes will be seen only by you.

Personal tabs can be accessed anytime from any device, even offline.
Learn more »
Give kudos to tab author, rate the tab!
1 2 3 4 5
comments
print report bad tab
2 comments total.
0 reply
mvreed123451 75 May 29, 2017 05:14 PM

Don't the tuning is quite right, the tabs are good, though.

0 reply
finnwillow6 10 Jun 27, 2017 02:26 AM

Hey nice tab fam, wanna start a columbian rap orchestra?

guest
You may want to rate the tab now too:
select rating
Wanna post a correction for this tab? Suggest correction