Oops, an error
Loading. Please wait.
298 views 12 this week
no commentswrite comment
1 2 3 4 5
3 more votes to show rating
add to favorites
×
Save as Personal and add changes to this tab that will be seen only by you. Learn more ›
×
You can save this tab as Personal to edit and correct it or add notes. All changes will be seen only by you. Learn more »
launch autoscroll
font size
0
reset
guitar tuner
edit
Autoscroll
slow
fast
+/-
esc
set tempo
stop
[Intro]

G|------------------------------------------------|
D|------------------------------------------------|
A|------11----------11----------11----------11----|
E|--9~-----9----9~-----9----9~-----9----9~-----9--|

G|------------------------------------------------|
D|------------------------------------------------|
A|------11----------11----------11----------11----|
E|--9~-----9----9~-----9----9~-----9----9~-----9--|

G|------------------------------------------------|
D|------------------------------------------------|
A|------11----------11----------11----------11----|
E|--9~-----9----9~-----9----9~-----9----9~-----9--|

G|------------------------------------------------|
D|------------------------------------------------|
A|------11----------11----------11----------11----|
E|--9~-----9----9~-----9----9~-----9----9~-----9--|

G|------------------------------------------------|
D|------------------------------------------------|
A|------11----------11----------11----------11----|
E|--9~-----9----9~-----9----9~-----9----9~-----9--|

G|------------------------------------------------|
D|------------------------------------------------|
A|------11----------11----------11----------11----|
E|--9~-----9----9~-----9----9~-----9----9~-----9--|


[Verse]

G|------------------------------------------------|
D|------------------------------------------------|
A|------11----------11----------11----------11----|
E|--9~-----9----9~-----9----9~-----9----9~-----9--|

G|------------------|
D|------------------|
A|------6-----------|
E|--4~----4---4/5~--|

G|------------------------------------------------|
D|------------------------------------------------|
A|------11----------11----------11----------11----|
E|--9~-----9----9~-----9----9~-----9----9~-----9--|

G|------------------------------------------------|
D|------------------------------------------------|
A|------11----------11----------11----------11----|
E|--9~-----9----9~-----9----9~-----9----9~-----9--|

G|------------------|
D|------------------|
A|------6-----------|
E|--4~----4---4/5~--|

G|------------------------------------------------|
D|------------------------------------------------|
A|------11----------11----------11----------11----|
E|--9~-----9----9~-----9----9~-----9----9~-----9--|


[Bridge]

G|------------------------------------------------|
D|------------------------------------------------|
A|------11----------11----------11----------11----|
E|--9~-----9----9~-----9----9~-----9----9~-----9--|

G|------------------------------------------------|
D|------------------------------------------------|
A|------11----------11----------11----------11----|
E|--9~-----9----9~-----9----9~-----9----9~-----9--|


[Verse]

G|------------------------------------------------|
D|------------------------------------------------|
A|------11----------11----------11----------11----|
E|--9~-----9----9~-----9----9~-----9----9~-----9--|

G|------------------|
D|------------------|
A|------6-----------|
E|--4~----4---4/5~--|

G|------------------------------------------------|
D|------------------------------------------------|
A|------11----------11----------11----------11----|
E|--9~-----9----9~-----9----9~-----9----9~-----9--|

G|------------------------------------------------|
D|------------------------------------------------|
A|------11----------11----------11----------11----|
E|--9~-----9----9~-----9----9~-----9----9~-----9--|

G|------------------|
D|------------------|
A|------6-----------|
E|--4~----4---4/5~--|

G|------------------------------------------------|
D|------------------------------------------------|
A|------11----------11----------11----------11----|
E|--9~-----9----9~-----9----9~-----9----9~-----9--|


[Chorus]

G|--------------------------------------------|
D|--------------------------------------------|
A|------9----------9----------4----------4----|
E|--7~----7----7~----7----2~----2----2~----2--|

G|---------------------------------------------|
D|---------------------------------------------|
A|------9----------10----------7----------7----|
E|--7~----7----8~-----8----5~----5----5~----5--|

G|------------------------|
D|------------------------|
A|------9----------9------|
E|--7~----7----7~----7/8--|

G|------------------------------------------------|
D|------------------------------------------------|
A|------11----------11----------11----------11----|
E|--9~-----9----9~-----9----9~-----9----9~-----9--|


[Post-Chorus]

G|------------------------------------------------|
D|------------------------------------------------|
A|------11----------11----------11----------11----|
E|--9~-----9----9~-----9----9~-----9----9~-----9--|

G|------------------------------------------------|
D|------------------------------------------------|
A|------11----------11----------11----------11----|
E|--9~-----9----9~-----9----9~-----9----9~-----9--|


[Verse]

G|------------------------------------------------|
D|------------------------------------------------|
A|------11----------11----------11----------11----|
E|--9~-----9----9~-----9----9~-----9----9~-----9--|

G|------------------|
D|------------------|
A|------6-----------|
E|--4~----4---4/5~--|

G|------------------------------------------------|
D|------------------------------------------------|
A|------11----------11----------11----------11----|
E|--9~-----9----9~-----9----9~-----9----9~-----9--|

G|------------------------------------------------|
D|------------------------------------------------|
A|------11----------11----------11----------11----|
E|--9~-----9----9~-----9----9~-----9----9~-----9--|

G|------------------|
D|------------------|
A|------6-----------|
E|--4~----4---4/5~--|

G|------------------------------------------------|
D|------------------------------------------------|
A|------11----------11----------11----------11----|
E|--9~-----9----9~-----9----9~-----9----9~-----9--|


[Chorus]

G|--------------------------------------------|
D|--------------------------------------------|
A|------9----------9----------4----------4----|
E|--7~----7----7~----7----2~----2----2~----2--|

G|---------------------------------------------|
D|---------------------------------------------|
A|------9----------10----------7----------7----|
E|--7~----7----8~-----8----5~----5----5~----5--|

G|------------------------|
D|------------------------|
A|------9----------9------|
E|--7~----7----7~----7/8--|


[Chorus Pt. 2]

G|----------------------------------------------------|
D|----------------------------------------------------|
A|------11----------11-----------11------------11-----|
E|--9~-----9----9~-----9----10~-----10----10~-----10--|

G|-------------------------------------------------------|
D|-------------------------------------11----------11----|
A|-------13------------13----------9~-----9----9~-----9--|
E|--11~-----11----11~-----11/13--------------------------|

G|------------------------------------------------------|
D|------------------------------------------------------|
A|------11----------11-------------11------------11-----|
E|--9~-----9----9~-----9-9----10~-----10----10~-----10--|

G|----------------------------------------------------------|
D|-------------------------------------11----------11-------|
A|-------13------------13----------9~-----9----9~-----9/10--|
E|--11~-----11----11~-----11/13-----------------------------|

G|--------------------------------------------------------------|
D|-------13------------13------------14---------------16--------|
A|--11~-----11----11~-----11----12~-----12-12----14~-----14-14--|
E|--------------------------------------------------------------|


[Solo]

G|------------------------------------------------|
D|------------------------------------------------|
A|------11----------11----------11----------11----|
E|--9~-----9----9~-----9----9~-----9----9~-----9--|

G|------------------------------------------------|
D|------------------------------------------------|
A|------11----------11----------11----------11----|
E|--9~-----9----9~-----9----9~-----9----9~-----9--|

G|------------------------------------------------|
D|------------------------------------------------|
A|------11----------11----------11----------11----|
E|--9~-----9----9~-----9----9~-----9----9~-----9--|

G|------------------------------------------------|
D|------------------------------------------------|
A|------11----------11----------11----------11----|
E|--9~-----9----9~-----9----9~----------9-9----9--|


[Verse]

G|------------------------------------------------|
D|------------------------------------------------|
A|------11----------11----------11----------11----|
E|--9~-----9----9~-----9----9~-----9----9~-----9--|

G|------------------------------------------------|
D|------------------------------------------------|
A|------11----------11----------11----------11----|
E|--9~-----9----9~-----9----9~-----9----9~-----9--|

G|------------------------------------------------|
D|------------------------------------------------|
A|------11----------11----------11----------11----|
E|--9~-----9----9~-----9----9~-----9----9~-----9--|

G|------------------------------------------------|
D|------------------------------------------------|
A|------11----------11----------11----------11----|
E|--9~-----9----9~-----9----9~-----9----9~-----9--|

G|------------------------------------------------|
D|------------------------------------------------|
A|------11----------11----------11----------11----|
E|--9~-----9----9~-----9----9~-----9----9~-----9--|

G|------------------------------------------------|
D|------------------------------------------------|
A|------11----------11----------11----------11----|
E|--9~-----9----9~-----9----9~-----9----9~-----9--|

G|------------------------------------------------|
D|------------------------------------------------|
A|------11----------11----------11----------11----|
E|--9~-----9----9~-----9----9~-----9----9~-----9--|

(riff starts to warp and fade out here some.)
G|------------------------------------------------------|
D|------------------------------------------------------|
A|------11----------11----------11----------11----------|
E|--9~-----9----9~-----9----9~-----9----9~-----9----8~--|


[Outro]- main riff in slow motion basically. 

G|--------------------------------------------|
D|--------------------------------------------|
A|------6----------6----------6----------6----|
E|--4~----4----4~----4----4~----4----4~----4--|

G|--------------------------------------------|
D|--------------------------------------------|
A|------6----------6----------6----------6----|
E|--4~----4----4~----4----4~----4----4~----4--|

G|--------------------------------------------|
D|--------------------------------------------|
A|------6----------6----------6----------6----|
E|--4~----4----4~----4----4~----4----4~----4--|

G|--------------------------------------------|
D|--------------------------------------------|
A|------6----------6----------6----------6----|
E|--4~----4----4~----4----4~----4----4~----4--|
  
 Fades Out. 


************************************

| /   Slide up
| ~   Vibrato

************************************
Suggest correction
Creating personal tab
Creating personal tab
You can edit any tab online and save it as your Personal.

You can edit, replace or remove any tab part or add personal notes – all changes will be seen only by you.

Personal tabs can be accessed anytime from any device, even offline.
Learn more »
Give kudos to tab author, rate the tab!
1 2 3 4 5
comments
print report bad tab
guest
You may want to rate the tab now too:
select rating
Wanna post a correction for this tab? Suggest correction