Oops, an error
Loading. Please wait.

Evil Death Roll bass

283 views 6 this week
no commentswrite comment
1 2 3 4 5
3 more votes to show rating
add to favorites
×
Save as Personal and add changes to this tab that will be seen only by you. Learn more ›
×
You can save this tab as Personal to edit and correct it or add notes. All changes will be seen only by you. Learn more »
launch autoscroll
font size
0
reset
guitar tuner
edit
Autoscroll
slow
fast
+/-
esc
set tempo
stop
[Intro]-bass comes in at about 0:08

G|------------------|
D|--3-3-3~--5-5-5~--|
A|------------------|
D|------------------|

G|----------------------------------------------------------------------|
D|--5h7-7-8p7-7-5h7---5h7-7-8p7-7-5h7---5h7-7-8-8p7-5---3-3-3~--5-5-5~--|
A|----------------------------------------------------------------------|
D|----------------------------------------------------------------------|

G|----------------------------------------------------------------------|
D|--5h7-7-8p7-7-5h7---5h7-7-8p7-7-5h7---5h7-7-8-8p7-5---3-3-3~--5-5-5~--|
A|----------------------------------------------------------------------|
D|----------------------------------------------------------------------|

G|---------------------------------------------------------------|
D|---------------------------------------------------------------|
A|--0-0-0-12--10-12--0-12--10-12---0-0-0-12--10-12--0-12--10-12--|
D|---------------------------------------------------------------|

G|-------------------------------------------------------------------|
D|-------------------------------------------------------------------|
A|--0-0-0-12--10-12--0-12--10-12---0-0-0-12--10-12---3-3-3~--5-5-5~--|
D|-------------------------------------------------------------------|


[Verse]

G|----------------------------------------------------------------------|
D|--5h7-7-8p7-7-5h7---5h7-7-8p7-7-5h7---5h7-7-8-8p7-5---3-3-3~--5-5-5~--|
A|----------------------------------------------------------------------|
D|----------------------------------------------------------------------|

G|----------------------------------------------5-7-------------------|
D|--5h7-7-8p7-7-5h7---5h7-7-8p7-7-5h7---5h7-7-7-------3-3-3~--5-5-5~--|
A|--------------------------------------------------------------------|
D|--------------------------------------------------------------------|

G|-------------------------------------------------------------------|
D|--5h7-7-8p7-7-5h7---5h7-7-8p7-7-5h7---5h7-7-8-8p7-5~---------------|
A|-------------------------------------------------------7--5--3--2--|
D|-------------------------------------------------------------------|

G|----------------------------------------------------------------------|
D|--5h7-7-8p7-7-5h7---5h7-7-8p7-7-5h7---5h7-7-8-8p7-5---3-3-3~--5-5-5~--|
A|----------------------------------------------------------------------|
D|----------------------------------------------------------------------|

G|----------------------------------------------------------------------|
D|--5h7-7-8p7-7-5h7---5h7-7-8p7-7-5h7---5h7-7-8-8p7-5---3-3-3~--5-5-5~--|
A|----------------------------------------------------------------------|
D|----------------------------------------------------------------------|

G|----------------------------------------------5-7-------------------|
D|--5h7-7-8p7-7-5h7---5h7-7-8p7-7-5h7---5h7-7-7-------3-3-3~--5-5-5~--|
A|--------------------------------------------------------------------|
D|--------------------------------------------------------------------|

G|-------------------------------------------------------------------|
D|--5h7-7-8p7-7-5h7---5h7-7-8p7-7-5h7---5h7-7-8-8p7-5~---------------|
A|-------------------------------------------------------7--5--3--2--|
D|-------------------------------------------------------------------|

G|-------------------------------------------------------------------|
D|--5h7-7-8p7-7-5h7---5h7-7-8p7-7-5h7---5h7-7-8-8p7-5~---------------|
A|-------------------------------------------------------7--5--3--2--|
D|-------------------------------------------------------------------|

G|-------------------------------------------------------------------------|
D|-------------------------------------------------------------------------|
A|-------------------------------------------------------------------------|
D|--0h2-2-3p2-2-0h2---0h2-2-3p2-2-0h2---0h2-2-3p2-2-0h2---0h2-2-3p2-2-0h2--|


[Chorus]

G|---------------------------------------------|
D|---------------------------------------------|
A|--5--5-5-0---5--5-5-0---5--5-5-0---5--5-5-0--|
D|---------------------------------------------|

G|----------------------------------------------------|
D|-----------------------------------3-3-3-3-5-5-5-5--|
A|--5--5-5-0---5--5-5-0---5--5-5-0--------------------|
D|----------------------------------------------------|

[Verse]

G|----------------------------------------------------------------------|
D|--5h7-7-8p7-7-5h7---5h7-7-8p7-7-5h7---5h7-7-8-8p7-5---3-3-3~--5-5-5~--|
A|----------------------------------------------------------------------|
D|----------------------------------------------------------------------|

G|----------------------------------------------------------------------|
D|--5h7-7-8p7-7-5h7---5h7-7-8p7-7-5h7---5h7-7-8-8p7-5---3-3-3~--5-5-5~--|
A|----------------------------------------------------------------------|
D|----------------------------------------------------------------------|

(rhythm is slightly different here. goes with the double bass on drums.)
G|----------------------------------------------5-7--------------------|
D|--5h7-7-7-8p7-5h7---5h7-7-7-8p7-5h7---5h7-7-7-------3-3-3-3-5-5-5-5--|
A|---------------------------------------------------------------------|
D|---------------------------------------------------------------------|

(same here)
G|----------------------------------------------5-7--------------------|
D|--5h7-7-7-8p7-5h7---5h7-7-7-8p7-5h7---5h7-7-7-------3-3-3-3-5-5-5-5--|
A|---------------------------------------------------------------------|
D|---------------------------------------------------------------------|

[Bridge]

G|---------------------------------------------------------------|
D|---------------------------------------------------------------|
A|--0-0-0-12--10-12--0-12--10-12---0-0-0-12--10-12--0-12--10-12--|
D|---------------------------------------------------------------|

G|---------------------------------------------------------------|
D|---------------------------------------------------------------|
A|--0-0-0-12--10-12--0-12--10-12---0-0-0-12--10-12--0-12--10-12--|
D|---------------------------------------------------------------|

G|---------------------------------------------------------------|
D|---------------------------------------------------------------|
A|--0-0-0-12--10-12--0-12--10-12---0-0-0-12--10-12--0-12--10-12--|
D|---------------------------------------------------------------|

G|---------------------------------------------------------------|
D|---------------------------------------------------------------|
A|--0-0-0-12--10-12--0-12--10-12---0-0-0-12--10-12--0-12--10-12--|
D|---------------------------------------------------------------|

G|---------------------------------------------------------------|
D|---------------------------------------------------------------|
A|--0-0-0-12--10-12--0-12--10-12---0-0-0-12--10-12--0-12--10-12--|
D|---------------------------------------------------------------|

G|---------------------------------------------------------------|
D|---------------------------------------------------------------|
A|--0-0-0-12--10-12--0-12--10-12---0-0-0-12--10-12--0-12--10-12--|
D|---------------------------------------------------------------|

G|---------------------------------------------------------------|
D|---------------------------------------------------------------|
A|--0-0-0-12--10-12--0-12--10-12---0-0-0-12--10-12--0-12--10-12--|
D|---------------------------------------------------------------|

G|---------------------------------------------------------------|
D|---------------------------------------------------------------|
A|--0-0-0-12--10-12--0-12--10-12---0-0-0-12--10-12--0-12--10-12--|
D|---------------------------------------------------------------|

(rhythm of this riff also changes slightly on the first few notes.)
G|---------------------------------------------------------------|
D|---------------------------------------------------------------|
A|--0~-12-12--10-12--0-12--10-12---0~-12-12--10-12--0-12--10-12--|
D|---------------------------------------------------------------|

G|---------------------------------------------------------------|
D|---------------------------------------------------------------|
A|--0~-12-12--10-12--0-12--10-12---0~-12-12--10-12--0-12--10-12--|
D|---------------------------------------------------------------|

G|---------------------------------------------------------------|
D|---------------------------------------------------------------|
A|--0~-12-12--10-12--0-12--10-12---0~-12-12--10-12--0-12--10-12--|
D|---------------------------------------------------------------|

G|---------------------------------------------------------------|
D|---------------------------------------------------------------|
A|--0~-12-12--10-12--0-12--10-12---0~-12-12--10-12--0-12--10-12--|
D|---------------------------------------------------------------|

G|---------------------------------------------------------------|
D|---------------------------------------------------------------|
A|--0~-12-12--10-12--0-12--10-12---0~-12-12--10-12--0-12--10-12--|
D|---------------------------------------------------------------|

G|---------------------------------------------------------------|
D|---------------------------------------------------------------|
A|--0~-12-12--10-12--0-12--10-12---0~-12-12--10-12--0-12--10-12--|
D|---------------------------------------------------------------|

G|---------------------------------------------------------------|
D|---------------------------------------------------------------|
A|--0~-12-12--10-12--0-12--10-12---0~-12-12--10-12--0-12--10-12--|
D|---------------------------------------------------------------|

G|---------------------------------------------------------------|
D|---------------------------------------------------------------|
A|--0~-12-12--10-12--0-12--10-12---0~-12-12--10-12--0-12--10-12--|
D|---------------------------------------------------------------|

G|---------------------------------------------------------------|
D|---------------------------------------------------------------|
A|--0~-12-12--10-12--0-12--10-12---0~-12-12--10-12--0-12--10-12--|
D|---------------------------------------------------------------|

G|---------------------------------------------------------------|
D|---------------------------------------------------------------|
A|--0~-12-12--10-12--0-12--10-12---0~-12-12--10-12--0-12--10-12--|
D|---------------------------------------------------------------|

G|---------------------------------------------------------------|
D|---------------------------------------------------------------|
A|--0~-12-12--10-12--0-12--10-12---0~-12-12--10-12--0-12--10-12--|
D|---------------------------------------------------------------|

G|---------------------------------------------------------------|
D|---------------------------------------------------------------|
A|--0~-12-12--10-12--0-12--10-12---0~-12-12--10-12--0-12--10-12--|
D|---------------------------------------------------------------|

G|---------------------------------------------------------------|
D|---------------------------------------------------------------|
A|--0~-12-12--10-12--0-12--10-12---0~-12-12--10-12--0-12--10-12--|
D|---------------------------------------------------------------|

G|---------------------------------------------------------------|
D|---------------------------------------------------------------|
A|--0~-12-12--10-12--0-12--10-12---0~-12-12--10-12--0-12--10-12--|
D|---------------------------------------------------------------|

G|---------------------------------------------------------------|
D|---------------------------------------------------------------|
A|--0~-12-12--10-12--0-12--10-12---0~-12-12--10-12--0-12--10-12--|
D|---------------------------------------------------------------|

G|---------------------------------------------------------------|
D|---------------------------------------------------------------|
A|--0~-12-12--10-12--0-12--10-12---0~-12-12--10-12--0-12--10-12--|
D|---------------------------------------------------------------|

(Invisible Face)
G|---------------------------------------------------------------|
D|---------------------------------------------------------------|
A|--0~-12-12--10-12--0-12--10-12---0~-12-12--10-12--0-12--10-12--|
D|---------------------------------------------------------------|

G|---------------------------------------------------------------|
D|---------------------------------------------------------------|
A|--0~-12-12--10-12--0-12--10-12---0~-12-12--10-12--0-12--10-12--|
D|---------------------------------------------------------------|

G|----9---5-7----7------------9-5-7----7---------|
D|--7----------5-----8-10-7----------5-----8-10--|
A|-----------------------------------------------|
D|-----------------------------------------------|

G|----9---5-7----7------------9-5-7----7---------|
D|--7----------5-----8-10-7----------5-----8-10--|
A|-----------------------------------------------|
D|-----------------------------------------------|

(start of this riff has a slightly altered rhytmn.)
G|------------------------------------------------------------|
D|------------------------------------------------------------|
A|--0~--12-12--0~-12-12--0-12---0~-12-12--10-12--0-12--10-12--|
D|------------------------------------------------------------|

G|---------------------------------------------------------------|
D|---------------------------------------------------------------|
A|--0~-12-12--10-12--0-12--10-12---0~-12-12--10-12--0-12--10-12--|
D|---------------------------------------------------------------|

G|---------------------------------------------------------------|
D|---------------------------------------------------------------|
A|--0~-12-12--10-12--0-12--10-12---0~-12-12--10-12--0-12--10-12--|
D|---------------------------------------------------------------|

G|---------------------------------------------------------------|
D|---------------------------------------------------------------|
A|--0~-12-12--10-12--0-12--10-12---0~-12-12--10-12--0-12--10-12--|
D|---------------------------------------------------------------|

"Nonagon Infinity opens the door..."
(not quite sure but there may be two basslines here or just another 
 low sounding guitar. this is kind of a combo of the two. otherwise, 
 just keep playing the last riff.)
G|----------------------------------------------------------------|
D|----------------------------------------------------------------|
A|--0~-12-12--10-12--0-12--10-12---0~-12-12--10-12--/15-15-15-14--|
D|----------------------------------------------------------------|

G|----------------------------------------------------------------|
D|----------------------------------------------------------------|
A|--0~-12-12--10-12--0-12--10-12---0~-12-12--10-12--/15-15-15-14--|
D|----------------------------------------------------------------|

G|----------------------------------------------------------------|
D|----------------------------------------------------------------|
A|--0~-12-12--10-12--0-12--10-12---0~-12-12--10-12--/15-15-15-14--|
D|----------------------------------------------------------------|

G|----------------------------------------------------------------|
D|----------------------------------------------------------------|
A|--0~-12-12--10-12--0-12--10-12---0~-12-12--10-12--/15-15-15-14--|
D|----------------------------------------------------------------|

G|---------------------------------------------------------------|
D|---------------------------------------------------------------|
A|--0~-12-12--10-12--0-12--10-12---0~-12-12--10-12--0-12--10-12--|
D|---------------------------------------------------------------|

G|---------------------------------------------------------------|
D|---------------------------------------------------------------|
A|--0~-12-12--10-12--0-12--10-12---0~-12-12--10-12--0-12--10-12--|
D|---------------------------------------------------------------|

G|---------------------------------------------------------------|
D|---------------------------------------------------------------|
A|--0~-12-12--10-12--0-12--10-12---0~-12-12--10-12--0-12--10-12--|
D|---------------------------------------------------------------|

G|---------------------------------------------------------------|
D|---------------------------------------------------------------|
A|--0~-12-12--10-12--0-12--10-12---0~-12-12--10-12--0-12--10-12--|
D|---------------------------------------------------------------|

                              (start slowly fading out on this one)
G|---------------------------------------------------------------|
D|---------------------------------------------------------------|
A|--0~-12-12--10-12--0-12--10-12---0~-12-12--10-12--0-12--10-12--|
D|---------------------------------------------------------------|

                                   (fullly fading out)
G|---------------------------------------------------------------|
D|---------------------------------------------------------------|
A|--0~-12-12--10-12--0-12--10-12---0~-12-12--10-12--0-12--10-12--|
D|---------------------------------------------------------------|


[Guitar/Keyboard Break]-bass slowly returns at about 6:08

G|---------------------------------------------------------------|
D|---------------------------------------------------------------|
A|--0~-12-12--10-12--0-12--10-12---0~-12-12--10-12--0-12--10-12--|
D|---------------------------------------------------------------|

G|---------------------------------------------------------------|
D|---------------------------------------------------------------|
A|--0~-12-12--10-12--0-12--10-12---0~-12-12--10-12--0-12--10-12--|
D|---------------------------------------------------------------|

Everything kick back in. (may be two basslines here again. this is a
                          combination of the two again. also works to  
                          keep playing the last riff. also the first
                          few notes have a different rhythm here.)
G|----------------------------------------------------------------|
D|----------------------------------------------------------------|
A|--0-0-0-12--10-12--0-12--10-12---0-0-0-12--10-12--/15-15-15-14--|
D|----------------------------------------------------------------|

G|----------------------------------------------------------------|
D|----------------------------------------------------------------|
A|--0-0-0-12--10-12--0-12--10-12---0-0-0-12--10-12--/15-15-15-14--|
D|----------------------------------------------------------------|

G|---------------------------------------------------------------|
D|---------------------------------------------------------------|
A|--0-0-0-12--10-12--0-12--10-12---0-0-0-12--10-12--0-12--10-12--|
D|---------------------------------------------------------------|

G|---------------------------------------------------------------|
D|---------------------------------------------------------------|
A|--0-0-0-12--10-12--0-12--10-12---0-0-0-12--10-12--0-12--10-12--|
D|---------------------------------------------------------------|

[Bass Break] "1! 2! 3. 4! AAHHHHHHH!!"
(rhythm of first few notes different again.)
G|---------------------------------------------------------------|
D|---------------------------------------------------------------|
A|--0~-12-12--10-12--0-12--10-12---0~-12-12--10-12--0-12--10-12--|
D|---------------------------------------------------------------|

G|-------------------------------------------------------------------------|
D|-------------------------------------------------------------------------|
A|--0~-12-12--10-12--0-12--10-12---0-0-12-12-15-12---8-8-8-8--10-10-10-10--|
D|-------------------------------------------------------------------------|


[Chorus]

G|---------------------------------------------|
D|---------------------------------------------|
A|--5--5-5-0---5--5-5-0---5--5-5-0---5--5-5-0--|
D|---------------------------------------------|

G|----------------------------------------------------|
D|-----------------------------------3-3-3-3-5-5-5-5--|
A|--5--5-5-0---5--5-5-0---5--5-5-0--------------------|
D|----------------------------------------------------|


[Verse/Outro]

G|----------------------------------------------------------------------|
D|--5h7-7-8p7-7-5h7---5h7-7-8p7-7-5h7---5h7-7-8-8p7-5---3-3-3~--5-5-5~--|
A|----------------------------------------------------------------------|
D|----------------------------------------------------------------------|

G|----------------------------------------------5-7-------------------|
D|--5h7-7-8p7-7-5h7---5h7-7-8p7-7-5h7---5h7-7-7-------3-3-3~--5-5-5~--|
A|--------------------------------------------------------------------|
D|--------------------------------------------------------------------|

G|-------------------------------------------------------------------|
D|--5h7-7-8p7-7-5h7---5h7-7-8p7-7-5h7---5h7-7-8-8p7-5~---------------|
A|-------------------------------------------------------7--5--3--2--|
D|-------------------------------------------------------------------|

G|----------------------------5-7---------------|
D|--5h7-7-8p7-7-5h7---5h7-7-7-------------------|
A|----------------------------------7--5--3--2--|
D|----------------------------------------------|


************************************

| h   Hammer-on
| p   Pull-off
| /   Slide up
| \   Slide down
| ~   Vibrato

************************************

            
            
Suggest correction
Creating personal tab
Creating personal tab
You can edit any tab online and save it as your Personal.

You can edit, replace or remove any tab part or add personal notes – all changes will be seen only by you.

Personal tabs can be accessed anytime from any device, even offline.
Learn more »
Give kudos to tab author, rate the tab!
1 2 3 4 5
comments
print report bad tab
guest
You may want to rate the tab now too:
select rating
Wanna post a correction for this tab? Suggest correction