Oops, an error
Loading. Please wait.

Gamma Knife bass

version 1
version 1

Whole song

Interactive

1,480 views 15 this week
no commentswrite comment
1 2 3 4 5
x 3
add to favorites
×
Save as Personal and add changes to this tab that will be seen only by you. Learn more ›
×
You can save this tab as Personal to edit and correct it or add notes. All changes will be seen only by you. Learn more »
launch autoscroll
font size
0
reset
guitar tuner
edit
Autoscroll
slow
fast
+/-
esc
set tempo
stop
Author
Difficulty
[Intro]
  Bass enters after guitar riffs for a second. 

G|----------------------------------------------------------|
D|--3h5------------------------------------------------3h5--|
A|------5~-5-5-5-5--5~-5-5-5-5--5~-5-5-5-5--5~-5-5-5-5------|
E|----------------------------------------------------------|

G|------------------------------------------------------|
D|-------------------------------------------------3h5--|
A|--5~-5-5-5-5--5~-5-5-5-5--5~-5-5-5-5--5~-5-5-5-5------|
E|------------------------------------------------------|

G|------------------------------------------------------|
D|-------------------------------------------------3h5--|
A|--5~-5-5-5-5--5~-5-5-5-5--5~-5-5-5-5--5~-5-5-5-5------|
E|------------------------------------------------------|

G|------------------------------------------------------|
D|-------------------------------------------------3h5--|
A|--5~-5-5-5-5--5~-5-5-5-5--5~-5-5-5-5--5~-5-5-5-5------|
E|------------------------------------------------------|


[Verse]

G|-------------------------------------------------------------------------|
D|-------------------------------------------------------------------------|
A|--5~-5---3h5~-5---3h5~-5---3h5~-5---3h5~-5---3h5~-5---3h5~-5---3h5-5~/7--|
E|-------------------------------------------------------------------------|

G|--------------------------------------------------|
D|--3h5-5-5~-5---3h5-5-5~-5---3h5-5-5~-5---3h5-5----|
A|-----------------------------------------------3--|
E|--------------------------------------------------|

G|-------------------------------------------------------------------------|
D|-------------------------------------------------------------------------|
A|--5~-5---3h5~-5---3h5~-5---3h5~-5---3h5~-5---3h5~-5---3h5~-5---3h5-5~/7--|
E|-------------------------------------------------------------------------|

G|--------------------------------------------|
D|--3h5-5-5~-5---3h5-5-5~-5---3h5-5-5~-5---5--|
A|--------------------------------------------|
E|--------------------------------------------|


[Pre-Chorus]

G|----------------------------------------------------------|
D|--3h5------------------------------------------------3h5--|
A|------5~-5-5-5-5--5~-5-5-5-5--5~-5-5-5-5--5~-5-5-5-5------|
E|----------------------------------------------------------|

G|------------------------------------------------------|
D|-------------------------------------------------3h5--|
A|--5~-5-5-5-5--5~-5-5-5-5--5~-5-5-5-5--5~-5-5-5-5------|
E|------------------------------------------------------|

G|------------------------------------------------------|
D|-------------------------------------------------3h5--|
A|--5~-5-5-5-5--5~-5-5-5-5--5~-5-5-5-5--5~-5-5-5-5------|
E|------------------------------------------------------|

G|--------------------------------------------------|
D|--------------------------------------------------|
A|--5~-5-5-5-5--5~-5-5-5-5--5~-5-5-5-5--5~-5-5-5-5--|
E|--------------------------------------------------|


[Chorus]

G|---------------------------------------|
D|--3h5-3~-3--3~~/7-5~-5--5~~/9-7~-7--7--|
A|---------------------------------------|
E|---------------------------------------|

G|----------------------------------------------------------|
D|--3h5------------------------------------------------3h5--|
A|------5~-5-5-5-5--5~-5-5-5-5--5~-5-5-5-5--5~-5-5-5-5------|
E|----------------------------------------------------------|

G|--------------------------------|
D|--7~-7---5h7~-7---5h7~-7---5h7--|
A|--------------------------------|
E|--------------------------------|

G|--------------------------------|
D|--7~-7---5h7~-7---5h7~-7---5h7--|
A|--------------------------------|
E|--------------------------------|

G|--------------------------------|
D|--7~-7---5h7~-7---5h7~-7---5h7--|
A|--------------------------------|
E|--------------------------------|

G|--------------------------------|
D|--7~-7---5h7~-7---5h7~-7---5h7--|
A|--------------------------------|
E|--------------------------------|

G|----------------------------------------------------------|
D|--3h5------------------------------------------------3h5--|
A|------5~-5-5-5-5--5~-5-5-5-5--5~-5-5-5-5--5~-5-5-5-5------|
E|----------------------------------------------------------|


[Bridge]

G|------------------------------------------------------|
D|-------------------------------------------------3h5--|
A|--5~-5-5-5-5--5~-5-5-5-5--5~-5-5-5-5--5~-5-5-5-5------|
E|------------------------------------------------------|

G|------------------------------------------------------|
D|-------------------------------------------------3h5--|
A|--5~-5-5-5-5--5~-5-5-5-5--5~-5-5-5-5--5~-5-5-5-5------|
E|------------------------------------------------------|

G|------------------------------------------------------|
D|-------------------------------------------------3h5--|
A|--5~-5-5-5-5--5~-5-5-5-5--5~-5-5-5-5--5~-5-5-5-5------|
E|------------------------------------------------------|

G|----------------------------------------------|
D|----------------------------------------------|
A|--5~-5-5-5-5--5~-5-5-5-5--3h5--5h7--3h5--1h3--|
E|----------------------------------------------|


[Verse]

G|-------------------------------------------------------------------------|
D|-------------------------------------------------------------------------|
A|--5~-5---3h5~-5---3h5~-5---3h5~-5---3h5~-5---3h5~-5---3h5~-5---3h5-5~/7--|
E|-------------------------------------------------------------------------|

G|--------------------------------------------------|
D|--3h5-5-5~-5---3h5-5-5~-5---3h5-5-5~-5---3h5-5----|
A|-----------------------------------------------3--|
E|--------------------------------------------------|

G|-------------------------------------------------------------------------|
D|-------------------------------------------------------------------------|
A|--5~-5---3h5~-5---3h5~-5---3h5~-5---3h5~-5---3h5~-5---3h5~-5---3h5-5~/7--|
E|-------------------------------------------------------------------------|

G|--------------------------------------------|
D|--3h5-5-5~-5---3h5-5-5~-5---3h5-5-5~-5---5--|
A|--------------------------------------------|
E|--------------------------------------------|


[Pre-Chorus]

G|----------------------------------------------------------|
D|--3h5------------------------------------------------3h5--|
A|------5~-5-5-5-5--5~-5-5-5-5--5~-5-5-5-5--5~-5-5-5-5------|
E|----------------------------------------------------------|

G|------------------------------------------------------|
D|-------------------------------------------------3h5--|
A|--5~-5-5-5-5--5~-5-5-5-5--5~-5-5-5-5--5~-5-5-5-5------|
E|------------------------------------------------------|

G|------------------------------------------------------|
D|-------------------------------------------------3h5--|
A|--5~-5-5-5-5--5~-5-5-5-5--5~-5-5-5-5--5~-5-5-5-5------|
E|------------------------------------------------------|

G|--------------------------------------------------|
D|--------------------------------------------------|
A|--5~-5-5-5-5--5~-5-5-5-5--5~-5-5-5-5--5~-5-5-5-5--|
E|--------------------------------------------------|


[Chorus]

G|----------------------------------------------------|
D|--3h5-3~-3--3~~/7-5~-5--5~~/9-7~-7--7~~/11-9~-9--9--|
A|----------------------------------------------------|
E|----------------------------------------------------|

G|----------------------------------------------------------|
D|--3h5------------------------------------------------3h5--|
A|------5~-5-5-5-5--5~-5-5-5-5--5~-5-5-5-5--5~-5-5-5-5------|
E|----------------------------------------------------------|

G|--------------------------------|
D|--------------------------------|
A|--------------------------------|
E|--5~-5---3h5~-5---3h5~-5---3h5--|

G|--------------------------------|
D|--------------------------------|
A|--------------------------------|
E|--5~-5---3h5~-5---3h5~-5---3h5--|

G|--------------------------------|
D|--------------------------------|
A|--------------------------------|
E|--5~-5---3h5~-5---3h5~-5---3h5--|

G|--------------------------------|
D|--------------------------------|
A|--------------------------------|
E|--5~-5---3h5~-5---3h5~-5---3h5--|

G|----------------------------------------------------------|
D|--3h5------------------------------------------------3h5--|
A|------5~-5-5-5-5--5~-5-5-5-5--5~-5-5-5-5--5~-5-5-5-5------|
E|----------------------------------------------------------|


[Bridge]

G|-------------------------------------|
D|--------------------------------3h5--|
A|--5~-5---3h5~-5---3h5~-5---3h5~------|
E|-------------------------------------|

G|-------------------------------------|
D|--------------------------------3h5--|
A|--5~-5---3h5~-5---3h5~-5---3h5~------|
E|-------------------------------------|

G|-------------------------------------|
D|--------------------------------3h5--|
A|--5~-5---3h5~-5---3h5~-5---3h5~------|
E|-------------------------------------|

G|-------------------------------------|
D|--------------------------------3h5--|
A|--5~-5---3h5~-5---3h5~-5---3h5~------|
E|-------------------------------------|

G|-------------------------------------|
D|--------------------------------3h5--|
A|--5~-5---3h5~-5---3h5~-5---3h5~------|
E|-------------------------------------|

G|-------------------------------------|
D|--------------------------------3h5--|
A|--5~-5---3h5~-5---3h5~-5---3h5~------|
E|-------------------------------------|

G|-----------------------------|
D|--/12-10---9-10---7-9---5-7--|
A|-----------------------------|
E|-----------------------------|

G|-----------------------------|
D|--/12-10---9-10---7-9---5-7--|
A|-----------------------------|
E|-----------------------------|

G|-------|
D|-------|
A|--/5~--|
E|-------|


[Drum and Guitar Break]-come in on last two measures 
                        before it all kicks back in. 

G|-----------------------------|
D|--/12-10---9-10---7-9---5-7--|
A|-----------------------------|
E|-----------------------------|

G|-----------------------------|
D|--/12-10---9-10---7-9---5-7--|
A|-----------------------------|
E|-----------------------------|


[Outro]

G|------------------------------------------------------|
D|-------------------------------------------------3h5--|
A|--5~-5-5-5-5--5~-5-5-5-5--5~-5-5-5-5--5~-5-5-5-5------|
E|------------------------------------------------------|

G|------------------------------------------------------|
D|-------------------------------------------------3h5--|
A|--5~-5-5-5-5--5~-5-5-5-5--5~-5-5-5-5--5~-5-5-5-5------|
E|------------------------------------------------------|

G|------------------------------------------------------|
D|-------------------------------------------------3h5--|
A|--5~-5-5-5-5--5~-5-5-5-5--5~-5-5-5-5--5~-5-5-5-5------|
E|------------------------------------------------------|

G|--------------------------------------------------|
D|--------------------------------------------------|
A|--5~-5-5-5-5--5~-5-5-5-5--5~-5-5-5-5--5~-5-5-5-5--|
E|--------------------------------------------------|

G|---------------------------------------|
D|--3h5-3~-3--3~~/7-5~-5--5~~/9-7~-7--7--|
A|---------------------------------------|
E|---------------------------------------|

G|---------|
D|--3-5----|
A|------5--|
E|---------|



************************************

| h   Hammer-on
| /   Slide up
| ~   Vibrato

************************************

            
            
Suggest correction
Creating personal tab
Creating personal tab
You can edit any tab online and save it as your Personal.

You can edit, replace or remove any tab part or add personal notes – all changes will be seen only by you.

Personal tabs can be accessed anytime from any device, even offline.
Learn more »
Give kudos to tab author, rate the tab!
1 2 3 4 5
comments
print report bad tab
guest
You may want to rate the tab now too:
select rating
Wanna post a correction for this tab? Suggest correction