Oops, an error
Loading. Please wait.

Gamma Knife tab

version 1
version 1

Whole song

Interactive

9,397 views 72 this week
7 commentsread comments
1 2 3 4 5
x 7
add to favorites
×
Save as Personal and add changes to this tab that will be seen only by you. Learn more ›
×
You can save this tab as Personal to edit and correct it or add notes. All changes will be seen only by you. Learn more »
launch autoscroll
font size
0
reset
how to read this tab
guitar tuner
edit
Autoscroll
slow
fast
+/-
esc
set tempo
stop
Author
Difficulty
intermediate
These are all the riffs you should need for this song, you'll just need to follow along with the song
and figure out what goes where :) King Gizz <3

Riff 1:
e|---------------------------------------------------------------------------|
B|------------------6--------------------------------------------------------|
G|---7-----5---7----0-----7----5---7-----------------------------------------|
D|---0-----0---0----------0----0---0-----------------------------------------|
A|---------------------------------------------------------------------------|
E|---------------------------------------------------------------------------|

Riff 2 (played with vocals):
     Milk  and  hon - ey  for  my  bod - y etc....
e|---------------------------------------------------------------------------|
B|---------------------------------------------------------------------------|
G|---7-----5----4-----5---2----4---0-----2-----------------------------------|
D|---------------------------------------------------------------------------|
A|---------------------------------------------------------------------------|
E|---------------------------------------------------------------------------|

Riff 3:
e|---------------------------------------------------------------------------|
B|---------------------------------------------------------------------------|
G|---7----5----8-----7----10----12----8----7---------------------------------|
D|---------------------------------------------------------------------------|
A|---------------------------------------------------------------------------|
E|---------------------------------------------------------------------------|

Riff 4:
e|---------------------------------------------------------------------------|
B|---------------------------------------------------------------------------|
G|---5---7---7---9---5---7---3---5-------------------------------------------|
D|---------------------------------------------------------------------------|
A|---------------------------------------------------------------------------|
E|---------------------------------------------------------------------------|

Riff 5 (last power chord only played after second verse):
e|---------------------------------------------------------------------------|
B|---------------------------------------------------------------------------|
G|---10---12----14-------16--------------------------------------------------|
D|---10---12----14--AND--16--------------------------------------------------|
A|---8----10----12-------14--------------------------------------------------|
E|---------------------------------------------------------------------------|




************************************

| x   Dead note
| g   Grace note
| (n) Ghost note
| h   Hammer-on
| p   Pull-off
| r   Release
| >   Accented note
| t   Tapping
| b   Bend
| br  Bend release
| pb  Pre-bend
| pbr Pre-bend release
| /   Slide up
| \   Slide down
| ~   Vibrato
| s   Slap
| P   Pop
| PM  Palm mute
| TR  Trill
| N   Tremolo

************************************
Suggest correction
Creating personal tab
Creating personal tab
You can edit any tab online and save it as your Personal.

You can edit, replace or remove any tab part or add personal notes – all changes will be seen only by you.

Personal tabs can be accessed anytime from any device, even offline.
Learn more »
comments
print report bad tab
7 comments total. Showing first comments.
0 reply
lol96uaz 184 Mar 26, 2016 07:13 AM

They also play this part at some point of the song
e|-------------------------------------|
B|-------------------------------------|
G|---7---5---8---7---10---12---8---7---|
D|-------------------------------------|
A|-------------------------------------|
E|-------------------------------------|

+2 reply
DJEPPO 10 Mar 31, 2016 03:40 PM

SICK! Thanks for that can't wait for the new album;)

0 reply
AlternativeRsk 43 Sep 30, 2016 03:24 AM

This is easily the best tab i've played

guest
You may want to rate the tab now too:
select rating
Wanna post a correction for this tab? Suggest correction