Oops, an error
Loading. Please wait.

Her And I chords

1,897 views 12 this week
1 commentread comment
1 2 3 4 5
x 3
add to favorites
×
Save as Personal and add changes to this tab that will be seen only by you. Learn more ›
×
You can save this tab as Personal to edit and correct it or add notes. All changes will be seen only by you. Learn more »
launch autoscroll
font size
0
reset
transpose
0
reset
display chords
guitar tuner
edit
Autoscroll
slow
fast
+/-
esc
set tempo
stop
Strumming
There is no strumming pattern for this song yet. and get +5 IQ
Her & I (Slow Jam ll)

Crazy track from King Gizz, this one is tuned down half a step. Might take me some time to get the chorus 
right; any help would be muchio appreciated.

*When playing the Ab at the end of each line, strum the higher notes(avoiding the root note.)

Intro/First Verse:

Ab    

               
 Ab          Cb                Db           Ab
It wouldn't hurt to give you more my love
Ab             Cb               Db              Ab
The sun shines through into a wave of thought
Ab                     Cb
You said the one I wed
                 Db            Ab
has got a thinking hand on her
Ab               Cb            Db         Ab 
Her will will shine from up above on us

Cb          Db     Cb                   Ab
Cuz everyday I build on precious hurt and I
Cb            Db              Cb              Ab          
It wouldn't hurt to put in some work on this angel
Cb            Db                                                     
I fill her heart 
  Db     Cb        Ab
with a lot of love 
       Cb       Db          Cb 
so the sun can shine a little brighter

Chorus:

Cb A#min Ab
   
Ab         Db
On her and I
Ab         Db
On her and I
Ab         Db
On her and I
Ab         Db
On her and I

A- All throughout the intrumental.

Guitar Riffs:

e|------------------------5~---  
B|---------------8-------------
G|-5-7-5-7-5-7-5--7-5-7-5------
D|-----------------------------
A|-----------------------------
E|------------------------------

e|----------------------------
B|---------------8-------------
G|-5-7-5-7-5-7-5--7-5-7-5------
D|------------------------7~--
A|-----------------------------
E|------------------------------

e|-10--8-7-----7h8p7-7h8p7--------10--8-7----------------
B|---------10-----------------------------10-7h8p7-7h8p7--
G|------------------------------------------------------
D|------------------------------------------------------
A|------------------------------------------------------
E|------------------------------------------------------


Songs lyrics repeats around 3 times with the same chords.

            
            
Suggest correction
Creating personal tab
Creating personal tab
You can edit any tab online and save it as your Personal.

You can edit, replace or remove any tab part or add personal notes – all changes will be seen only by you.

Personal tabs can be accessed anytime from any device, even offline.
Learn more »
Give kudos to tab author, rate the tab!
1 2 3 4 5
comments
print report bad tab
1 comment total.
0 reply
bunii 269 May 29, 2016 09:15 PM

awesome tab man - thanks!

guest
You may want to rate the tab now too:
select rating
Wanna post a correction for this tab? Suggest correction