Oops, an error
Loading. Please wait.

Im In Your Mind Fuzz bass

version 1
version 1

Whole song

Interactive

439 views 12 this week
no commentswrite comment
1 2 3 4 5
2 more votes to show rating
add to favorites
×
Save as Personal and add changes to this tab that will be seen only by you. Learn more ›
×
You can save this tab as Personal to edit and correct it or add notes. All changes will be seen only by you. Learn more »
launch autoscroll
font size
0
reset
guitar tuner
edit
Autoscroll
slow
fast
+/-
esc
set tempo
stop
[Intro]
G|-------------------------------------------------------------|
D|-------------4--------------2--------------4--------------2--|
A|--0h2-2-2--2-----0h2-2-2--2-----0h2-2-2--2-----0h2-2-2--2----|
E|-------------------------------------------------------------|

G|-------------------------------------------------------------|
D|-------------4--------------2--------------4--------------2--|
A|--0h2-2-2--2-----0h2-2-2--2-----0h2-2-2--2-----0h2-2-2--2----|
E|-------------------------------------------------------------|

G|--------------------------------------------------------------------|
D|--------------------------------------------------------------------|
A|--0h2-2-2-2-2-2-2/7-7-7-7-7-7-7-7--5-5-5-5-5-5-6-6-7-7-7-7-7-7-7-7--|
E|--------------------------------------------------------------------|

G|--------------------------------------------------------------------|
D|--------------------------------------------------------------------|
A|--0h2-2-2-2-2-2-2/7-7-7-7-7-7-7-7--5-5-5-5-5-5-6-6-7-7-7-7-7-7-7-7--|
E|--------------------------------------------------------------------|

G|--------------------------------------------------------------------|
D|--------------------------------------------------------------------|
A|--0h2-2-2-2-2-2-2/7-7-7-7-7-7-7-7--5-5-5-5-5-5-6-6-7-7-7-7-7-7-7-7--|
E|--------------------------------------------------------------------|

G|--------------------------------------------------------------------|
D|--------------------------------------------------------------------|
A|--0h2-2-2-2-2-2-2/7-7-7-7-7-7-7-7--5-5-5-5-5-5-6-6-7-7-7-7-7-7-7-7--|
E|--------------------------------------------------------------------|

G|-------------------------------------------------------------|
D|-------------4--------------2--------------4--------------2--|
A|--0h2-2-2--2-----0h2-2-2--2-----0h2-2-2--2-----0h2-2-2--2----|
E|-------------------------------------------------------------|

G|-------------------------------------------------------------|
D|-------------4--------------2--------------4--------------2--|
A|--0h2-2-2--2-----0h2-2-2--2-----0h2-2-2--2-----0h2-2-2--2----|
E|-------------------------------------------------------------|


[Chorus]
G|-------------------------------------------------------------|
D|-------------------------------------------------------------|
A|--5h7-7-7--7-7---2h5-5-5--5-5---0h2-2-2--2-2---0h2-2-2--2-2--|
E|-------------------------------------------------------------|

G|--------------------------------------------------------------|
D|--------------------------------------------------------------|
A|--/5h7-7-7--7-7---2h5-5-5--5-5---0h2-2-2--2-2---0h2-2-2--2-2--|
E|--------------------------------------------------------------|

G|-------------------------------------------------------------------------------------|
D|-------------------------------------------------------------------------------------|
A|--/5h7-7-7--7-7---2h5-5-5--5-5---/12h14-14-14-14-14-14-14---12-12-12-12-12-12-12-12--|
E|-------------------------------------------------------------------------------------|

G|-----------------------------------------------------|
D|-----------------------------------------------------|
A|--10-10-10-10-10-10-10-10---12-12-12-12-12-12-12-12--|
E|-----------------------------------------------------|


[Bridge]
G|--------------------------------------------------------------------|
D|--------7~---------------7~---------------7~---------------7~-------|
A|------------9-7--------------9-7--------------9-7--------------9-7--|
E|--7-7-7------------7-7-7------------7-7-7------------7-7-7----------|

G|--------------------------------------------------------------------|
D|--------7~---------------7~---------------7~---------------7~-------|
A|------------9-7--------------9-7--------------9-7--------------9-7--|
E|--7-7-7------------7-7-7------------7-7-7------------7-7-7----------|

G|--------------------------------------------------------------------|
D|--------7~---------------7~---------------7~---------------7~-------|
A|------------9-7--------------9-7--------------9-7--------------9-7--|
E|--7-7-7------------7-7-7------------7-7-7------------7-7-7----------|


[Chorus]
G|-------------------------------------------------------------|
D|-------------------------------------------------------------|
A|--5h7-7-7--7-7---2h5-5-5--5-5---0h2-2-2--2-2---0h2-2-2--2-2--|
E|-------------------------------------------------------------|

G|--------------------------------------------------------------|
D|--------------------------------------------------------------|
A|--/5h7-7-7--7-7---2h5-5-5--5-5---0h2-2-2--2-2---0h2-2-2--2-2--|
E|--------------------------------------------------------------|

G|-------------------------------------------------------------------------------------|
D|-------------------------------------------------------------------------------------|
A|--/5h7-7-7--7-7---2h5-5-5--5-5---/12h14-14-14-14-14-14-14---12-12-12-12-12-12-12-12--|
E|-------------------------------------------------------------------------------------|

G|-----------------------------------------------------|
D|-----------------------------------------------------|
A|--10-10-10-10-10-10-10-10---12-12-12-12-12-12-12-12--|
E|-----------------------------------------------------|


[Bridge]
G|--------------------------------------------------------------------|
D|--------7~--------------------------------7~---------------7~-------|
A|------------9-7--------------9-7--------------9-7--------------9-7--|
E|--7-7-7------------7-7-7-7-7--------7-7-7------------7-7-7----------|

G|--------------------------------------------------------------------|
D|--------7~---------------7~---------------7~---------------7~-------|
A|------------9-7--------------9-7--------------9-7--------------9-7--|
E|--7-7-7------------7-7-7------------7-7-7------------7-7-7----------|

G|--------------------------------------------------------------------|
D|--------7~---------------7~---------------7~---------------7~-------|
A|------------9-7--------------9-7--------------9-7--------------9-7--|
E|--7-7-7------------7-7-7------------7-7-7------------7-7-7----------|

G|--------------------------------------------------------------------|
D|--------7~---------------7~---------------7~---------------7~-------|
A|------------9-7--------------9-7--------------9-7--------------9-7--|
E|--7-7-7------------7-7-7------------7-7-7------------7-7-7----------|

G|--------------------------------------------------------------------|
D|--------------------------------------------------------------------|
A|--0h2-2-2-2-2-2-2/7-7-7-7-7-7-7-7--5-5-5-5-5-5-6-6-7-7-7-7-7-7-7-7--|
E|--------------------------------------------------------------------|

G|--------------------------------------------------------------------|
D|--------------------------------------------------------------------|
A|--0h2-2-2-2-2-2-2/7-7-7-7-7-7-7-7--5-5-5-5-5-5-6-6-7-7-7-7-7-7-7-7--|
E|--------------------------------------------------------------------|

G|--------------------------------------------------------------------|
D|--------------------------------------------------------------------|
A|--0h2-2-2-2-2-2-2/7-7-7-7-7-7-7-7--5-5-5-5-5-5-6-6-7-7-7-7-7-7-7-7--|
E|--------------------------------------------------------------------|

G|--------------------------------------------------------------------|
D|--------------------------------------------------------------------|
A|--0h2-2-2-2-2-2-2/7-7-7-7-7-7-7-7--5-5-5-5-5-5-6-6-7-7-7-7-7-7-7-7--|
E|--------------------------------------------------------------------|


[Outro]
G|-------------------------------------------------------------|
D|-------------4--------------2--------------4--------------2--|
A|--0h2-2-2--2-----0h2-2-2--2-----0h2-2-2--2-----0h2-2-2--2----|
E|-------------------------------------------------------------|

G|-------------------------------------------------------------|
D|-------------4--------------2--------------4--------------2--|
A|--0h2-2-2--2-----0h2-2-2--2-----0h2-2-2--2-----0h2-2-2--2----|
E|-------------------------------------------------------------|

(starts fading out)
G|-------------------------------------------------------------|
D|-------------4--------------2--------------4--------------2--|
A|--0h2-2-2--2-----0h2-2-2--2-----0h2-2-2--2-----0h2-2-2--2----|
E|-------------------------------------------------------------|

G|---------------------------------------------------------------|
D|-------------4--------------2--------------4-------------------|
A|--0h2-2-2--2-----0h2-2-2--2-----0h2-2-2--2-----/7-7-7-7--5--0--|
E|---------------------------------------------------------------|

(mostly faded out at this point but is still playing quietly)
G|-------------------------------------------------------------|
D|-------------4--------------2--------------4--------------2--|
A|--0h2-2-2--2-----0h2-2-2--2-----0h2-2-2--2-----0h2-2-2--2----|
E|-------------------------------------------------------------|

G|---------------------------------------------------------------|
D|-------------4--------------2--------------4-------------------|
A|--0h2-2-2--2-----0h2-2-2--2-----0h2-2-2--2-----/7-7-7-7--5--0--|
E|---------------------------------------------------------------|

(fully fade out)
G|----------------------------------------------|
D|-------------4--------------2--------------4--|
A|--0h2-2-2--2-----0h2-2-2--2-----0h2-2-2--2----|
E|----------------------------------------------|


************************************

| h   Hammer-on
| /   Slide up
| ~   Vibrato

************************************

            
            
Suggest correction
Creating personal tab
Creating personal tab
You can edit any tab online and save it as your Personal.

You can edit, replace or remove any tab part or add personal notes – all changes will be seen only by you.

Personal tabs can be accessed anytime from any device, even offline.
Learn more »
Give kudos to tab author, rate the tab!
1 2 3 4 5
comments
print report bad tab
guest
You may want to rate the tab now too:
select rating
Wanna post a correction for this tab? Suggest correction