Oops, an error
Loading. Please wait.

Im Not In Your Mind bass

version 1
version 1

Whole song

  • Other version was lacking in some of the minor int... Show more

Interactive

754 views 9 this week
no commentswrite comment
1 2 3 4 5
3 more votes to show rating
add to favorites
×
Save as Personal and add changes to this tab that will be seen only by you. Learn more ›
×
You can save this tab as Personal to edit and correct it or add notes. All changes will be seen only by you. Learn more »
launch autoscroll
font size
0
reset
guitar tuner
edit
Autoscroll
slow
fast
+/-
esc
set tempo
stop
Author
The whole song is instrumental so you just need to work on your timing

[0:00 - 0:35]

G|---------------------------|
D|---------------------------|
A|-0h2-222--5--0h2-222--5----|
E|---------------------------|

[0:36 - 1:25]

G|---------------------------|
D|----------2----------------|
A|-0h2-222-----0h2-222--5----|
E|---------------------------|

[1:25 - 2:52]

G|---------------------------|
D|---------------------------|
A|-0h2-222--5--0h2-222--5----|
E|---------------------------|

[2:53 - Intro to Cellophane]

G|---------------------------|
D|----------4-----------2----|
A|-0h2-222-----0h2-222-------|
E|---------------------------|


************************************

| h   Hammer-on

************************************

            
            
Suggest correction
Creating personal tab
Creating personal tab
You can edit any tab online and save it as your Personal.

You can edit, replace or remove any tab part or add personal notes – all changes will be seen only by you.

Personal tabs can be accessed anytime from any device, even offline.
Learn more »
Give kudos to tab author, rate the tab!
1 2 3 4 5
comments
print report bad tab
guest
You may want to rate the tab now too:
select rating
Wanna post a correction for this tab? Suggest correction