Oops, an error
Loading. Please wait.

Im Not In Your Mind bass

version 2
version 2

Whole song

  • Other version was lacking in some of the minor int... Show more

Interactive

154 views 9 this week
no commentswrite comment
1 2 3 4 5
3 more votes to show rating
add to favorites
×
Save as Personal and add changes to this tab that will be seen only by you. Learn more ›
×
You can save this tab as Personal to edit and correct it or add notes. All changes will be seen only by you. Learn more »
launch autoscroll
font size
0
reset
guitar tuner
edit
Autoscroll
slow
fast
+/-
esc
set tempo
stop
About this tab version
Other version was lacking in some of the minor intricacies in this song. All fills and rhythm changes noted on this tab. Was this info helpful? Yes No
This song is an intrumental, so there aren't really parts.
Just listen for the changes. 


[First Riff]

G|------------------------------------------------------------------------|
D|------------------------------------------------------------------------|
A|--0h2-2-2-2-2--5----0h2-2-2-2-2--5----0h2-2-2-2-2--5----0h2-2-2-2-2--5--|
E|------------------------------------------------------------------------|

G|------------------------------------------------------------------------|
D|------------------------------------------------------------------------|
A|--0h2-2-2-2-2--5----0h2-2-2-2-2--5----0h2-2-2-2-2--5----0h2-2-2-2-2--5--|
E|------------------------------------------------------------------------|

G|------------------------------------------------------------------------|
D|------------------------------------------------------------------------|
A|--0h2-2-2-2-2--5----0h2-2-2-2-2--5----0h2-2-2-2-2--5----0h2-2-2-2-2--5--|
E|------------------------------------------------------------------------|

G|------------------------------------------------------------------------|
D|------------------------------------------------------------------------|
A|--0h2-2-2-2-2--5----0h2-2-2-2-2--5----0h2-2-2-2-2--5----0h2-2-2-2-2--5--|
E|------------------------------------------------------------------------|

G|------------------------------------------------------------------------|
D|------------------------------------------------------------------------|
A|--0h2-2-2-2-2--5----0h2-2-2-2-2--5----0h2-2-2-2-2--5----0h2-2-2-2-2--5--|
E|------------------------------------------------------------------------|

G|------------------------------------------------------------------------|
D|------------------------------------------------------------------------|
A|--0h2-2-2-2-2--5----0h2-2-2-2-2--5----0h2-2-2-2-2--5----0h2-2-2-2-2--5--|
E|------------------------------------------------------------------------|

G|------------------------------------------------------------------------|
D|------------------------------------------------------------------------|
A|--0h2-2-2-2-2--5----0h2-2-2-2-2--5----0h2-2-2-2-2--5----0h2-2-2-2-2--5--|
E|------------------------------------------------------------------------|


[Second Riff]

G|------------------------------------------------------------------------|
D|---------------2-----------------------------------2--------------------|
A|--0h2-2-2-2-2-------0h2-2-2-2-2--5----0h2-2-2-2-2-------0h2-2-2-2-2--5--|
E|------------------------------------------------------------------------|

(same riff basically but rhythm changes slightly.
G|-------------------------------------------------------------|
D|-------------2-----------------------------2--------------2--|
A|--0h2-2-2--2-----0h2-2-2--2-5---0h2-2-2--2-----0h2-2-2--2----|
E|-------------------------------------------------------------|

G|-------------------------------------------------------------|
D|-------------2-----------------------------2-----------------|
A|--0h2-2-2--2-----0h2-2-2--2-5---0h2-2-2--2-----0h2-2-2--2-5--|
E|-------------------------------------------------------------|

G|-------------------------------------------------------------|
D|----------------------------2--------------2-----------------|
A|--0h2-2-2--2-5---0h2-2-2--2-----0h2-2-2--2-----0h2-2-2--2-5--|
E|-------------------------------------------------------------|

                                                 (rhythm change again)
G|---------------------------------------------------------------|
D|-------------2-----------------------------2-------------------|
A|--0h2-2-2--2-----0h2-2-2--2-5---0h2-2-2--2-----0h2-2-2-2-2--5--|
E|---------------------------------------------------------------|

G|------------------------------------------------------------------------|
D|---------------2-----------------------------------2--------------------|
A|--0h2-2-2-2-2-------0h2-2-2-2-2--5----0h2-2-2-2-2-------0h2-2-2-2-2--5--|
E|------------------------------------------------------------------------|

G|------------------------------------------------------------------------|
D|---------------2-----------------------------------2--------------------|
A|--0h2-2-2-2-2-------0h2-2-2-2-2--5----0h2-2-2-2-2-------0h2-2-2-2-2--5--|
E|------------------------------------------------------------------------|


[First Riff]

G|------------------------------------------------------------------------|
D|------------------------------------------------------------------------|
A|--0h2-2-2-2-2--5----0h2-2-2-2-2--5----0h2-2-2-2-2--5----0h2-2-2-2-2--5--|
E|------------------------------------------------------------------------|

G|------------------------------------------------------------------------|
D|------------------------------------------------------------------------|
A|--0h2-2-2-2-2--5----0h2-2-2-2-2--5----0h2-2-2-2-2--5----0h2-2-2-2-2--5--|
E|------------------------------------------------------------------------|

G|------------------------------------------------------------------------|
D|------------------------------------------------------------------------|
A|--0h2-2-2-2-2--5----0h2-2-2-2-2--5----0h2-2-2-2-2--5----0h2-2-2-2-2--5--|
E|------------------------------------------------------------------------|

G|------------------------------------------------------------------------|
D|------------------------------------------------------------------------|
A|--0h2-2-2-2-2--5----0h2-2-2-2-2--5----0h2-2-2-2-2--5----0h2-2-2-2-2--5--|
E|------------------------------------------------------------------------|

G|------------------------------------------------------------------------|
D|------------------------------------------------------------------------|
A|--0h2-2-2-2-2--5----0h2-2-2-2-2--5----0h2-2-2-2-2--5----0h2-2-2-2-2--5--|
E|------------------------------------------------------------------------|

G|------------------------------------------------------------------------|
D|------------------------------------------------------------------------|
A|--0h2-2-2-2-2--5----0h2-2-2-2-2--5----0h2-2-2-2-2--5----0h2-2-2-2-2--5--|
E|------------------------------------------------------------------------|

G|------------------------------------------------------------------------|
D|------------------------------------------------------------------------|
A|--0h2-2-2-2-2--5----0h2-2-2-2-2--5----0h2-2-2-2-2--5----0h2-2-2-2-2--5--|
E|------------------------------------------------------------------------|

G|------------------------------------------------------------------------|
D|------------------------------------------------------------------------|
A|--0h2-2-2-2-2--5----0h2-2-2-2-2--5----0h2-2-2-2-2--5----0h2-2-2-2-2--5--|
E|------------------------------------------------------------------------|

G|------------------------------------------------------------------------|
D|------------------------------------------------------------------------|
A|--0h2-2-2-2-2--5----0h2-2-2-2-2--5----0h2-2-2-2-2--5----0h2-2-2-2-2--5--|
E|------------------------------------------------------------------------|


[Second Riff]

G|------------------------------------------------------------------------|
D|---------------2----------------------------------2---------------------|
A|--0h2-2-2-2-2-------0h2-2-2-2-2--5----0h2-2-2-2-2-------0h2-2-2-2-2--5--|
E|------------------------------------------------------------------------|


[First Riff]
(rhythm alters back and forth on these)
G|-----------------------------------------------------------------|
D|-----------------------------------------------------------------|
A|--0h2-2-2--2-5---0h2-2-2-2-2--5---0h2-2-2--2-5---0h2-2-2-2-2--5--|
E|-----------------------------------------------------------------|

(end of these next 3 bars alter slightly.)
G|-----------------------------------------------------------------|
D|-----------------------------------------------------------------|
A|--0h2-2-2--2-5---0h2-2-2-2-2--5---0h2-2-2--2-5---0h2-2-2-2-2-----|
E|--------------------------------------------------------------2--|

G|-----------------------------------------------------------------|
D|-----------------------------------------------------------------|
A|--0h2-2-2--2-5---0h2-2-2-2-2--5---0h2-2-2--2-5---0h2-2-2-2-2-----|
E|--------------------------------------------------------------2--|

G|-----------------------------------------------------------------|
D|-----------------------------------------------------------------|
A|--0h2-2-2--2-5---0h2-2-2-2-2--5---0h2-2-2--2-5---0h2-2-2-2-2-----|
E|--------------------------------------------------------------2--|

G|-----------------------------------------------------------------|
D|-----------------------------------------------------------------|
A|--0h2-2-2--2-5---0h2-2-2-2-2--5---0h2-2-2--2-5---0h2-2-2-2-2--5--|
E|-----------------------------------------------------------------|

G|-----------------------------------------------------------------|
D|-----------------------------------------------------------------|
A|--0h2-2-2--2-5---0h2-2-2-2-2--5---0h2-2-2--2-5---0h2-2-2-2-2--5--|
E|-----------------------------------------------------------------|

G|-----------------------------------------------------------------|
D|-----------------------------------------------------------------|
A|--0h2-2-2--2-5---0h2-2-2-2-2--5---0h2-2-2--2-5---0h2-2-2-2-2--5--|
E|-----------------------------------------------------------------|

G|-----------------------------------------------------------------|
D|-----------------------------------------------------------------|
A|--0h2-2-2--2-5---0h2-2-2-2-2--5---0h2-2-2--2-5---0h2-2-2-2-2--5--|
E|-----------------------------------------------------------------|

(rhythm different all the way here preparing for last riff.)
G|-------------------------------------------------------------|
D|-------------------------------------------------------------|
A|--0h2-2-2--2-5---0h2-2-2--2-5---0h2-2-2--2-5---0h2-2-2--2-5--|
E|-------------------------------------------------------------|


[Outro/"Cellophane" Intro]

G|-------------------------------------------------------------|
D|-------------4--------------2--------------4--------------2--|
A|--0h2-2-2--2-----0h2-2-2--2-----0h2-2-2--2-----0h2-2-2--2----|
E|-------------------------------------------------------------|


************************************

| h   Hammer-on

************************************

            
            
Suggest correction
Creating personal tab
Creating personal tab
You can edit any tab online and save it as your Personal.

You can edit, replace or remove any tab part or add personal notes – all changes will be seen only by you.

Personal tabs can be accessed anytime from any device, even offline.
Learn more »
Give kudos to tab author, rate the tab!
1 2 3 4 5
comments
print report bad tab
guest
You may want to rate the tab now too:
select rating
Wanna post a correction for this tab? Suggest correction