Oops, an error
Loading. Please wait.

Invisible Face tab

1,633 views 57 this week
1 commentread comment
1 2 3 4 5
x 5
add to favorites
×
Save as Personal and add changes to this tab that will be seen only by you. Learn more ›
×
You can save this tab as Personal to edit and correct it or add notes. All changes will be seen only by you. Learn more »
launch autoscroll
font size
0
reset
how to read this tab
guitar tuner
edit
Autoscroll
slow
fast
+/-
esc
set tempo
stop
My first tab
Not sure if this is right but it sounds okey to me                                        

 [Verse]
e|--------------------------------------------------|     
B|--------------------------------------------------|        I distort the notion of the place
G|--------------------------------------------------|        The universe's other face
D|-----9--5--7---7-----5----9-5-7-----7-----5-------|        
A|--7----------5----8-----7---------5----8-----7----|        
E|--------------------------------------------------|   

e|--------------------------------------------------| 
B|--------------------------------------------------|                                                        
G|--------------------------------------------------|        The speed of light has slowed apace
D|-----5------------5---------5------------5--------|        The universe's other face
A|-----------5----8---7-----------5-----8-----7-----|
E|--7-----5-----5-----------7---5-----5-------------|    
                                                          
Repeat entire verse riff twice, once without lyrics, then with lyrics

 [Pre-Chorus] 
e|----------------------------------------------------------------------------|   What it is
B|----------------------------------------------------------------------------|   Imbossible
G|----------------------------------------------------------------------------|   Gravity
D|----------------------------------------------------------------------------|   The universe 
A|-----7p5h7~---5p3h5~---7p5h7~---5p3h5~--------------------------------------|   Has me 
E|-----------------------------------------7p5h7~---5p3h5~---7p5h7~---5p3h5~--|   Invisible 
                                                                                  Face
[Chorus]                Invisibe... face...
e|--7--7--7---5--5--5---7--7--7---5--5--5-| 
B|--8--8--8---6--6--6---8--8--8---6--6--6-| 
G|--9--9--9---7--7--7---9--9--9---7--7--7-|  X2
D|--9--9--9---7--7--7---9--9--9---7--7--7-| 
A|--7--7--7---5--5--5---7--7--7---5--5--5-| 
E|----------------------------------------|

[Verse]
e|--------------------------------------------------|     
B|--------------------------------------------------|           I climb up the stalk and plant the bean
G|--------------------------------------------------|           The universe is a machine 
D|-----9--5--7---7-----5----9-5-7-----7-----5-------|           
A|--7----------5----8-----7---------5----8-----7----|           
E|--------------------------------------------------|   
 
e|--------------------------------------------------| 
B|--------------------------------------------------|                                                        
G|--------------------------------------------------|           That has awoken from a dream
D|-----5------------5---------5------------5--------|           The universe is a machine
A|-----------5----8---7-----------5-----8-----7-----|
E|--7-----5-----5-----------7---5-----5-------------|

the last 7 on the A string leads directly into the "7p5h7" of the pre-chorus

[Pre-Chorus] 
e|----------------------------------------------------------------------------|   What it is
B|----------------------------------------------------------------------------|   Imbossible
G|----------------------------------------------------------------------------|   Gravity
D|----------------------------------------------------------------------------|   The universe 
A|-----7p5h7~---5p3h5~---7p5h7~---5p3h5~--------------------------------------|   Has me 
E|-----------------------------------------7p5h7~---5p3h5~---7p5h7~---5p3h5~--|   Invisible 
                                                                                  Face
[Chorus]                Invisibe... face...
e|--7--7--7---5--5--5---7--7--7---5--5--5-| 
B|--8--8--8---6--6--6---8--8--8---6--6--6-| 
G|--9--9--9---7--7--7---9--9--9---7--7--7-|  X2
D|--9--9--9---7--7--7---9--9--9---7--7--7-| 
A|--7--7--7---5--5--5---7--7--7---5--5--5-| 
E|----------------------------------------|


After instrumental break
E|--------------------------------------------------
B|--------------------------------------------------
G|--------------------------------------------------
D|--------------------------------------------------
A|-----9--5--7-----7-----5-----9-5-7-------7-----5--
E|--7-----------5-----8-----7-----------5-----8-----

E|----------------------------------------------------------
B|----------------------------------------------------------
G|----------------------------------------------------------
D|--9p7h9--7p5h7--9p7h9--7p5h7------------------------------
A|------------------------------9p7h9--7p5h7--9p7h9--7p5h7--
E|----------------------------------------------------------


[Lots of Wah pedal]
E|--------------------------------------------------
B|--------------------------------------------------
G|--------------------------------------------------
D|--------------------------9--7--6--7--9--7--6--7--
A|-----5--7--9-----5--7--9--------------------------
E|--7-----------7-----------------------------------

E|--------------------------------------------------
B|--------------------------------------------------
G|--------------------------------------------------
D|--------------------------9--7--6--7--9-----------
A|-----5--7--9-----5--7--9--------------------------
E|--7-----------7-----------------------------------




************************************

| h   Hammer-on
| p   Pull-off
| ~   Vibrato

************************************

            
            
Suggest correction
Creating personal tab
Creating personal tab
You can edit any tab online and save it as your Personal.

You can edit, replace or remove any tab part or add personal notes – all changes will be seen only by you.

Personal tabs can be accessed anytime from any device, even offline.
Learn more »
comments
print report bad tab
1 comment total.
+1 reply
mepage2000 66 Dec 28, 2016 12:25 AM

Great tab! Thanks for adding this. I have been wanting to learn this for a while

guest
You may want to rate the tab now too:
select rating
Wanna post a correction for this tab? Suggest correction