Oops, an error
Loading. Please wait.

Invisible Face bass

version 2
version 2

Whole song

  • Bass tab to complement the guitar tab submitted by akuel.
  • The other tab was pretty close but some parts were... Show more
205 views 1 this week
no commentswrite comment
1 2 3 4 5
3 more votes to show rating
add to favorites
×
Save as Personal and add changes to this tab that will be seen only by you. Learn more ›
×
You can save this tab as Personal to edit and correct it or add notes. All changes will be seen only by you. Learn more »
launch autoscroll
font size
0
reset
guitar tuner
edit
Autoscroll
slow
fast
+/-
esc
set tempo
stop
Author
Difficulty
About this tab version
The other tab was pretty close but some parts weren't quite right. Everything is in this one. Was this info helpful? Yes No
[Intro]-a little tricky. just listen for timing. 
G|-----------------------------------------------|
D|----9---5-7----7------------9-5-7----7---------|
A|--7----------5-----8-10-7----------5-----8-10--|
E|-----------------------------------------------|

G|-----------------------------------------------|
D|----9---5-7----7------------9-5-7----7---------|
A|--7----------5-----8-10-7----------5-----8-10--|
E|-----------------------------------------------|

[Verse]
G|-----------------------------------------------|
D|----9---5-7----7------------9-5-7----7---------|
A|--7----------5-----8-10-7----------5-----8-10--|
E|-----------------------------------------------|

G|-----------------------------------------------|
D|--------5-7-------------------5-7--------------|
A|--7----------5-----8-10-7----------5-----8-10--|
E|----7----------5------------7--------5---------|

[Chorus]-similar to verse but slightly different. 
G|-----------------------------------------------|
D|----9---5-7----7----------9---5-7----7---------|
A|--7----------5-----8-10-7----------5-----8-10--|
E|-----------------------------------------------|

G|-----------------------------------------------|
D|----9---5-7----7----------9---5-7----7---------|
A|--7----------5-----8-10-7----------5-----8-10--|
E|-----------------------------------------------|

G|-----------------------------------------------|
D|----9---5-7----7----------9---5-7----7---------|
A|--7----------5-----8-10-7----------5-----8-10--|
E|-----------------------------------------------|

G|-----------------------------------------------|
D|----9---5-7----7----------9---5-7----7---------|
A|--7----------5-----8-10-7----------5-----8-10--|
E|-----------------------------------------------|

[Verse]
G|-----------------------------------------------|
D|----9---5-7----7------------9-5-7----7---------|
A|--7----------5-----8-10-7----------5-----8-10--|
E|-----------------------------------------------|

G|-----------------------------------------------|
D|--------5-7-------------------5-7--------------|
A|--7----------5-----8-10-7----------5-----8-10--|
E|----7----------5------------7--------5---------|

[Chorus
G|-----------------------------------------------|
D|----9---5-7----7----------9---5-7----7---------|
A|--7----------5-----8-10-7----------5-----8-10--|
E|-----------------------------------------------|

G|-----------------------------------------------|
D|----9---5-7----7----------9---5-7----7---------|
A|--7----------5-----8-10-7----------5-----8-10--|
E|-----------------------------------------------|

G|-----------------------------------------------|
D|----9---5-7----7----------9---5-7----7---------|
A|--7----------5-----8-10-7----------5-----8-10--|
E|-----------------------------------------------|

G|-------------------------------------------|
D|----9---5-7----7----------9---5-7----------|
A|--7----------5-----8-10-7----------5-5-5~--|
E|-------------------------------------------|

[Drum Break/Bridge]-bass comes back in at about 1:17.
                    similar to main riff but varied. 
                    listen for timing. 

G|---------------------------------------------|
D|----9---5-7---7----------9---5-7---7---------|
A|--7---------5-----8-10-7---------5-----8-10--|
E|---------------------------------------------|

(listen for missing note on this one)
G|---------------------------------------------|
D|--------5-7------------------5-7-------------|
A|--7---------5-----8-10-7---------5-----8-10--|
E|----7--------------------7---------5---------|

G|---------------------------------------------|
D|----9---5-7---7----------9---5-7---7---------|
A|--7---------5-----8-10-7---------5-----8-10--|
E|---------------------------------------------|

G|---------------------------------------------|
D|--------5-7------------------5-7-------------|
A|--7---------5-----8-10-7---------5-----8-10--|
E|----7---------5----------7---------5---------|

G|---------------------------------------------|
D|----9---5-7---7----------9---5-7---7---------|
A|--7---------5-----8-10-7---------5-----8-10--|
E|---------------------------------------------|

G|---------------------------------------------|
D|--------5-7------------------5-7-------------|
A|--7---------5-----8-10-7---------5-----8-10--|
E|----7---------5----------7---------5---------|

G|---------------------------------------------|
D|----9---5-7---7----------9---5-7---7---------|
A|--7---------5-----8-10-7---------5-----8-10--|
E|---------------------------------------------|

G|---------------------------------------------|
D|--------5-7------------------5-7-------------|
A|--7---------5-----8-10-7---------5-----8-10--|
E|----7---------5----------7---------5---------|

G|---------------------------------------------|
D|----9---5-7---7----------9---5-7---7---------|
A|--7---------5-----8-10-7---------5-----8-10--|
E|---------------------------------------------|

G|---------------------------------------------|
D|--------5-7------------------5-7-------------|
A|--7---------5-----8-10-7---------5-----8-10--|
E|----7---------5----------7---------5---------|

G|---------------------------------------------|
D|----9---5-7---7----------9---5-7---7---------|
A|--7---------5-----8-10-7---------5-----8-10--|
E|---------------------------------------------|

G|---------------------------------------------|
D|--------5-7------------------5-7-------------|
A|--7---------5-----8-10-7---------5-----8-10--|
E|----7---------5----------7---------5---------|

G|---------------------------------------------|
D|----9---5-7---7----------9---5-7---7---------|
A|--7---------5-----8-10-7---------5-----8-10--|
E|---------------------------------------------|

G|---------------------------------------------|
D|--------5-7------------------5-7-------------|
A|--7---------5-----8-10-7---------5-----8-10--|
E|----7---------5----------7---------5---------|

G|---------------------------------------------|
D|----9---5-7---7----------9---5-7---7---------|
A|--7---------5-----8-10-7---------5-----8-10--|
E|---------------------------------------------|

G|---------------------------------------------|
D|--------5-7------------------5-7-------------|
A|--7---------5-----8-10-7---------5-----8-10--|
E|----7---------5----------7---------5---------|

G|---------------------------------------------|
D|--------5-7------------------5-7-------------|
A|--7---------5-----8-10-7---------5-----8-10--|
E|----7---------5----------7---------5---------|

(this one starts slowing down gradually into next riff.
  6 of the last 8 notes are played almost silently.)
G|-----------------------------------------------------|
D|--------5-7--------------------(5)-(7)---------------|
A|--7---------5-----8-10-(7)-------------(5)-----8~h9--|
E|----7---------5------------(7)-------------(5)-------|

[Slow Chorus]
G|-------------------------------------------|
D|-------------------------------------------|
A|----9-5h7-----7-----------9-5-7---7--------|
E|--7---------5---8~h10-7---------5---8~h10--|

G|-------------------------------------------|
D|-------------------------------------------|
A|------9-5-7---7-----------9-5-7---7--------|
E|--7---------5---8~h10-7---------5---8~h10--|

G|-------------------------------------------|
D|-------------------------------------------|
A|----9-5~h7----7---------9-5~h7----7--------|
E|--7---------5---8~h10-7---------5---8~h10--|

G|-------------------------------------------|
D|-------------------------------------------|
A|----9-5~h7----7---------9-5~h7----7--------|
E|--7---------5---8~h10-7---------5---8~h10--|

[Outro/Intro to "Wah Wah"]
G|-------------------------------|
D|-------------------------------|
A|----------7~-9~---------7~-9~--|
E|--7~--10~-------7~--10~--------|

G|-----------------------------------|
D|-----------------------------------|
A|--/14~------7~-9~-/14~------7~-9~--|
E|--------10~-------------10~--------|

G|----------------11~------------------|
D|--------12~-14~----------------------|
A|--/14~--------------/14~------7~-9~--|
E|--------------------------10~--------|

G|-------------------|
D|-------------------|
A|--/14~------7~-9~--|
E|--------10~--------|


************************************

| (n) Ghost note
| h   Hammer-on
| /   Slide up
| ~   Vibrato

************************************

            
            
Suggest correction
Creating personal tab
Creating personal tab
You can edit any tab online and save it as your Personal.

You can edit, replace or remove any tab part or add personal notes – all changes will be seen only by you.

Personal tabs can be accessed anytime from any device, even offline.
Learn more »
Give kudos to tab author, rate the tab!
1 2 3 4 5
comments
print report bad tab
guest
You may want to rate the tab now too:
select rating
Wanna post a correction for this tab? Suggest correction