Oops, an error
Loading. Please wait.

Nuclear Fusion bass

version 1
version 1

Whole song

  • This is the intro to Nuclear Fusion. The song is r... Show more
1,399 views 12 this week
no commentswrite comment
1 2 3 4 5
3 more votes to show rating
add to favorites
×
Save as Personal and add changes to this tab that will be seen only by you. Learn more ›
×
You can save this tab as Personal to edit and correct it or add notes. All changes will be seen only by you. Learn more »
launch autoscroll
font size
0
reset
guitar tuner
edit
Autoscroll
slow
fast
+/-
esc
set tempo
stop
Author
Difficulty
About this tab version
This is the intro to Nuclear Fusion. The song is recorded on a microtonal bass, but this tab sounds somewhat like the song. This is also the first by-ear, original tab by me. Was this info helpful? Yes No
[Intro] Starts at (0:21)
G|------------------------|--------------------------|
D|------------------------|--------------------------|
A|---9-9-8-7---9--9-9-8---|---9-9-8-7---9--9-8-8-7---|
E|--------8---------------|--------8-----------------|

G|---------------------------|----------------------------|
G|---------------------------|----------------------------|
A|---9-9-8-7----9--9-8-8-7---|---9--9-9-7----9--9-8-8-7---|
D|--------8------------------|---------8------------------|

            
            
Suggest correction
Creating personal tab
Creating personal tab
You can edit any tab online and save it as your Personal.

You can edit, replace or remove any tab part or add personal notes – all changes will be seen only by you.

Personal tabs can be accessed anytime from any device, even offline.
Learn more »
Give kudos to tab author, rate the tab!
1 2 3 4 5
comments
print report bad tab
guest
You may want to rate the tab now too:
select rating
Wanna post a correction for this tab? Suggest correction