Oops, an error
Loading. Please wait.

Nuclear Fusion bass

version 2
version 2

Whole song

  • This is the intro to Nuclear Fusion. The song is r... Show more
736 views 33 this week
no commentswrite comment
1 2 3 4 5
x 4
add to favorites
×
Save as Personal and add changes to this tab that will be seen only by you. Learn more ›
×
You can save this tab as Personal to edit and correct it or add notes. All changes will be seen only by you. Learn more »
launch autoscroll
font size
0
reset
guitar tuner
edit
Autoscroll
slow
fast
+/-
esc
set tempo
stop
Author
Difficulty
First off, this song (and whole album) is actually played on
microtonal instruments. Unfortunately, i don't own a microtonal 
bass. With that said, I am tabbing them out in standard tuning 
to the best of my abilities. The trick i found is, if the note
sounds a little off, slightly bend the note and it gives it the
sound of being off a little, or microtonal. Hope that helps!

[Intro]
G|---------------------------------------------|
D|---------------------------------------------|
A|--4---0-0-1-1/2-2-3-3---4---0-0-1-1/2-2-3-3--|
E|----2---------------------2------------------|

G|----------------------------------------------------|
D|------------------------------------------------4~--|
A|--4---0-0-1-1/2-2-3-3---4---0-0-1-1/2-2-3-3---4-----|
E|----2-----------------------------------------------|

"NUCLEAR FUSION!"
 (Bass only)
G|----------------------------------------------------------|
D|----------------------------------------------------------|
A|--9~-9~--9---7-9~--9-9~-7~---9~-9~--9---7-9~--9-9-9-9-7~--|
E|-----------9--------------------------9-------------------|

G|-----------------------------------------------------------|
D|-----------------------------------------------------------|
A|--9~-9~--9---7-9~--9-9-9-7~---9~-9-9~--9---7-9~-9-9--9-7~--|
E|-----------9-----------------------------9-----------------|

 (everything kicks in)
G|--------------------------------------------------------|
D|--------------------------------------------------------|
A|--9~-9~--9---7-9~--9-9~-7~---9~-9~--9---7-9~--9-9-9-7~--|
E|-----------9--------------------------9-----------------|

G|----------------------------------------------------------|
D|----------------------------------------------------------|
A|--9~-9~--9---7-9~--9-9-9-9-7~---9~-9~--9---7-9~--9-9~-7~--|
E|-----------9-----------------------------9----------------|

"Doo Doo Doodoodoo Doodoodoo Doo Doo Doo"
G|--------------------------------------------------------|
D|--------------------------------------------------------|
A|--9~-9~--9---7-9~--9-9~-7~---9~-9~--9---7-9~--9-9-9-7~--|
E|-----------9--------------------------9-----------------|

G|---------------------------------------------------------|
D|---------------------------------------------------------|
A|--9~-9~--9---7-9~--9-9-9-7~---9~--9-9~-7~---9~--9-9~-7~--|
E|-----------9---------------------------------------------|

[Verse]
G|---------------------------------------------------------|
D|---------------------------------------------------------|
A|--9~-9~--9---7-9~--9-9-9-7~---9~-9~--9---7-9~--9-9-9-7~--|
E|-----------9---------------------------9-----------------|

G|---------------------------------------------------------|
D|---------------------------------------------------------|
A|--9~-9~--9---7-9~--9-9-9-7~---9~-9~--9---7-9~--9-9-9-7~--|
E|-----------9---------------------------9-----------------|

G|---------------------------------------------------------|
D|---------------------------------------------------------|
A|--9~-9~--9---7-9~--9-9-9-7~---9~-9~--9---7-9~--9-9-9-7~--|
E|-----------9---------------------------9-----------------|

G|---------------------------------------------------------|
D|---------------------------------------------------------|
A|--9~-9~--9---7-9~--9-9-9-7~---9~-9~--9---7-9~--9-9-9-7~--|
E|-----------9---------------------------9-----------------|

G|---------------------------------------------------------|
D|---------------------------------------------------------|
A|--9~-9~--9---7-9~--9-9-9-7~---9~-9~--9---7-9~--9-9-9-7~--|
E|-----------9---------------------------9-----------------|

G|-----------------------------------------------------------------------------|
D|--------------------------------------------------------------------6-6-6-6--|
A|--9~-9~--9---7-9~--9-9-9-7~---5b-5b-5b-5b-5b-5b-5b-5b--7b-7b-7b-7b-----------|
E|-----------9-----------------------------------------------------------------|

[Chorus]
G|---------------------------------------------------------|
D|---------------------------------------------------------|
A|--9~-9~--9---7-9~--9-9-9-7~---9~-9~--9---7-9~--9-9-9-7~--|
E|-----------9---------------------------9-----------------|

G|---------------------------------------------------|
D|---------------------------------------------------|
A|--9~-9~--9---7-9~--9-9-9-7~---4---0-0-1-1/2-2-3-3--|
E|-----------9--------------------2------------------|

G|----------------------------------------------------------|
D|----------------------------------------------------------|
A|--/9~-9~--9---7-9~--9-9-9-7~---9~-9~--9---7-9~--9-9-9-7~--|
E|------------9---------------------------9-----------------|

G|------------------------------------------------------------------------------------|
D|-------------------------------------------------------------------------6-6--------|
A|--0~--0-0-0-0-0-0--2~--2-2-2-2-2-2--5b-5b-5b-5b-5b-5b-5b-5b--7b-7b-7b-7b-----7b-7b--|
E|------------------------------------------------------------------------------------|

[Post-Chorus]
G|---------------------------------------------------------|
D|---------------------------------------------------------|
A|--9~-9~--9---7-9~--9-9-9-7~---9~-9~--9---7-9~--9-9-9-7~--|
E|-----------9---------------------------9-----------------|

G|---------------------------------------------------------|
D|---------------------------------------------------------|
A|--9~-9~--9---7-9~--9-9-9-7~---9~-9~--9---7-9~--9-9-9-7~--|
E|-----------9---------------------------9-----------------|

[Verse]
G|---------------------------------------------------------|
D|---------------------------------------------------------|
A|--9~-9~--9---7-9~--9-9-9-7~---9~-9~--9---7-9~--9-9-9-7~--|
E|-----------9---------------------------9-----------------|

G|---------------------------------------------------------|
D|---------------------------------------------------------|
A|--9~-9~--9---7-9~--9-9-9-7~---9~-9~--9---7-9~--9-9-9-7~--|
E|-----------9---------------------------9-----------------|

G|---------------------------------------------------------|
D|---------------------------------------------------------|
A|--9~-9~--9---7-9~--9-9-9-7~---9~-9~--9---7-9~--9-9-9-7~--|
E|-----------9---------------------------9-----------------|

G|---------------------------------------------------------|
D|---------------------------------------------------------|
A|--9~-9~--9---7-9~--9-9-9-7~---9~-9~--9---7-9~--9-9-9-7~--|
E|-----------9---------------------------9-----------------|

[Bass "Solo"]
G|--/11~-11~--11----9-11~--11-11-11/14-13---/11~-11~--11----9-11--11-11-9h11p9-------|
D|---------------11--------------------------------------11--------------------11-9--|
A|-----------------------------------------------------------------------------------|
E|-----------------------------------------------------------------------------------|

G|--/11~--11-11-11/14-13---13h14p13--9h11p9----------|
D|-------------------------------------------11-9-7--|
A|---------------------------------------------------|
E|---------------------------------------------------|

 "NUCLEAR FUSION!"
G|---------------------------------------------------|
D|----------------------------------------6-6--------|
A|--5b-5b-5b-5b-5b-5b-5b-5b--7b-7b-7b-7b------7b-7b--|
E|---------------------------------------------------|

[Chorus]
G|---------------------------------------------------------|
D|---------------------------------------------------------|
A|--9~-9~--9---7-9~--9-9-9-7~---9~-9~--9---7-9~--9-9-9-7~--|
E|-----------9---------------------------9-----------------|

G|---------------------------------------------------|
D|---------------------------------------------------|
A|--9~-9~--9---7-9~--9-9-9-7~---4---0-0-1-1/2-2-3-3--|
E|-----------9--------------------2------------------|

 (slight change up here)
G|----------------------------------------------------------|
D|----------------------------------------------------------|
A|--9~--9-9-9-7~--9~-9~--9---7---9~-9~--9---7-9~--9-9-9-7~--|
E|-------------------------9--------------9-----------------|

G|------------------------------------------------------------------------------------|
D|-------------------------------------------------------------------------6-6--------|
A|--0~--0-0-0-0-0-0--2~--2-2-2-2-2-2--5b-5b-5b-5b-5b-5b-5b-5b--7b-7b-7b-7b-----7b-7b--|
E|------------------------------------------------------------------------------------|

[Post-Chorus]
G|-------------------------------------------------------|
D|-------------------------------------------------------|
A|--9~-9~--9---7-9~--9-9-7~---9~-9~--9---7-9~--9-9-9-7~--|
E|-----------9-------------------------9-----------------|

G|--------------------------------------------------------|
D|--------------------------------------------------------|
A|--9~-9~--9---7-9~--9-9~-7~---9~--9-9~-7~---9~--9-9~-7~--|
E|-----------9--------------------------------------------|

"Doo Doo Doodoodoo Doodoodoo Doo Doo Doo"
G|--------------------------------------------------------|
D|--------------------------------------------------------|
A|--9~-9~--9---7-9~--9-9~-7~---9~-9~--9---7-9~--9-9-9-7~--|
E|-----------9--------------------------9-----------------|

G|--------------------------------------------------------|
D|--------------------------------------------------------|
A|--9~-9~--9---7-9~--9-9~-7~---9~--9-9~-7~---9~--9-9~-7~--|
E|-----------9--------------------------------------------|

G|-------------------------------------------------------|
D|-------------------------------------------------------|
A|--9~-9~--9---7-9~--9-9-7~---9~-9~--9---7-9~--9-9-9-7~--|
E|-----------9-------------------------9-----------------|

G|---------------------------------------------------------|
D|---------------------------------------------------------|
A|--9~-9~--9---7-9~--9-9-9-7~---9~--9-9~-7~---9~--9-9~-7~--|
E|-----------9---------------------------------------------|

[Outro]
G|------------------------------------------------------------------------------------|
D|-------------------------------------------------------------------------6-6--------|
A|--0~--0-0-0-0-0-0--2~--2-2-2-2-2-2--5b-5b-5b-5b-5b-5b-5b-5b--7b-7b-7b-7b-----7b-7b--|
E|------------------------------------------------------------------------------------|

G|-----------------------|
D|-----------------------|
A|--4---0-0-1-1/2-2-3-3--|
E|----2------------------|

G|------------------------------------------------------------------------------------|
D|-------------------------------------------------------------------------6-6--------|
A|--0~--0-0-0-0-0-0--2~--2-2-2-2-2-2--5b-5b-5b-5b-5b-5b-5b-5b--7b-7b-7b-7b-----7b-7b--|
E|------------------------------------------------------------------------------------|

G|---------------------------------------------|
D|---------------------------------------------|
A|--4---0-0-1-1/2-2-3-3---4---0-0-1-1/2-2-3-3--|
E|----2---------------------2------------------|

G|----------------------------------------------------|
D|------------------------------------------------4~--|
A|--4---0-0-1-1/2-2-3-3---4---0-0-1-1/2-2-3-3---4-----|
E|----2---------------------2-------------------------|


************************************

| h   Hammer-on
| p   Pull-off
| b   Bend
| /   Slide up
| ~   Vibrato

************************************
Suggest correction
Creating personal tab
Creating personal tab
You can edit any tab online and save it as your Personal.

You can edit, replace or remove any tab part or add personal notes – all changes will be seen only by you.

Personal tabs can be accessed anytime from any device, even offline.
Learn more »
comments
print report bad tab
guest
You may want to rate the tab now too:
select rating
Wanna post a correction for this tab? Suggest correction