Oops, an error
Loading. Please wait.

People Vultures bass

901 views 15 this week
no commentswrite comment
1 2 3 4 5
x 4
add to favorites
×
Save as Personal and add changes to this tab that will be seen only by you. Learn more ›
×
You can save this tab as Personal to edit and correct it or add notes. All changes will be seen only by you. Learn more »
launch autoscroll
font size
0
reset
guitar tuner
edit
Autoscroll
slow
fast
+/-
esc
set tempo
stop
Author
Difficulty

[Intro]- bass comes in after guitar riff twice. 

G|--------------------------|
D|--------------------------|
A|--------------3--5--------|
E|--5--3--6--5--------6--5--|

G|--------------------------|
D|--------------------------|
A|--------------3--5--------|
E|--5--3--6--5--------6--5--|

G|---------|
D|---------|
A|---------|
E|--3/5~~--|


"People Vultures
God approaches..."

G|--5-7--7-9--5-7--3-5--|
D|----------------------|
A|----------------------|
E|----------------------|


[Main Riff]

G|------------------------------------------------|
D|--/7-7-7-5---0-7-7-7-5---0-7-7-7-5---0-7-7-7-5--|
A|------------------------------------------------|
E|------------------------------------------------|

G|------------------------------------------------|
D|--/7-7-7-5---0-7-7-7-5---0-7-7-7-5---0-7-7-7-5--|
A|------------------------------------------------|
E|------------------------------------------------|

G|------------------------------------------------|
D|--/7-7-7-5---0-7-7-7-5---0-7-7-7-5---0-7-7-7-5--|
A|------------------------------------------------|
E|------------------------------------------------|

G|------------------------------------------------|
D|--/7-7-7-5---0-7-7-7-5---0-7-7-7-5---0-7-7-7-5--|
A|------------------------------------------------|
E|------------------------------------------------|


[Pre-Verse]

G|-----------------------------------------------------------------------------|
D|-----------------------------------------------------------------------------|
A|-----------------------------------------------------------------------------|
E|--5--5-5-5--5--5-5---5--5-5-5--5--5-5---5--5-5-5--5--5-5---5--5-5-5--5--5-5--|

G|-------------------------------------------------------------------------------------------------|
D|-------------------------------------------------------------------------------------------------|
A|----------------------------------------------------------------/12-12~--12-12~--12-12~--12-12~--|
E|--5--5-5-5--5--5-5---5--5-5-5--5--5-5---5-5~--5-5~--5-5~--5-5~-----------------------------------|


[Verse]

G|--------------------------------------------------|
D|--------------------------------------------------|
A|--------------------------------------------------|
E|--6--6-6-6-6--6--6-6-6-6--8--8-8-8-8--8--8-8-8-8--|

G|------------------------------------------------|
D|--/7-7-7-5---0-7-7-7-5---0-7-7-7-5---0-7-7-7-5--|
A|------------------------------------------------|
E|------------------------------------------------|

G|--------------------------------------------------|
D|--------------------------------------------------|
A|--------------------------------------------------|
E|--6--6-6-6-6--6--6-6-6-6--8--8-8-8-8--8--8-8-8-8--|

G|------------------------------------------------------|
D|------------------------------------------------------|
A|--5--5-5-5-5--5--5-5-5-5--5--5-5-5-5--5--5-5-5-5-5-5--|
E|------------------------------------------------------|

G|------------------------------------------------|
D|--/7-7-7-5---0-7-7-7-5---0-7-7-7-5---0-7-7-7-5--|
A|------------------------------------------------|
E|------------------------------------------------|

G|------------------------------------------------|
D|--/7-7-7-5---0-7-7-7-5---0-7-7-7-5---0-7-7-7-5--|
A|------------------------------------------------|
E|------------------------------------------------|

G|--------------------------------------------------|
D|--------------------------------------------------|
A|--------------------------------------------------|
E|--6--6-6-6-6--6--6-6-6-6--8--8-8-8-8--8--8-8-8-8--|

G|------------------------------------------------|
D|--/7-7-7-5---0-7-7-7-5---0-7-7-7-5---0-7-7-7-5--|
A|------------------------------------------------|
E|------------------------------------------------|

G|--------------------------------------------------|
D|--------------------------------------------------|
A|--------------------------------------------------|
E|--6--6-6-6-6--6--6-6-6-6--8--8-8-8-8--8--8-8-8-8--|

G|------------------------------------------------------|
D|------------------------------------------------------|
A|--5--5-5-5-5--5--5-5-5-5--5--5-5-5-5--5--5-5-5-5-5-5--|
E|------------------------------------------------------|

G|------------------------------------------------|
D|--/7-7-7-5---0-7-7-7-5---0-7-7-7-5---0-7-7-7-5--|
A|------------------------------------------------|
E|------------------------------------------------|

G|------------------------------------------------|
D|--/7-7-7-5---0-7-7-7-5---0-7-7-7-5---0-7-7-7-5--|
A|------------------------------------------------|
E|------------------------------------------------|

G|-------|
D|--/7~--|
A|-------|
E|-------|


"People Vultures
God approaches..."

G|----------------------|
D|----------------------|
A|--3-5--5-7--3-5--1-3--|
E|----------------------|

G|--------------------------------------------------|
D|--------------------------------------------------|
A|--------------------------------------------------|
E|--6--6-6-6-6--6--6-6-6-6--8--8-8-8-8--8--8-8-8-8--|

G|--------------------------------------------------|
D|--7--7-7-7-7--7--7-7-7-7--7--7-7-7-7--7--7-7-7-7--|
A|--------------------------------------------------|
E|--------------------------------------------------|

G|--------------------------------------------------|
D|--------------------------------------------------|
A|--------------------------------------------------|
E|--6--6-6-6-6--6--6-6-6-6--8--8-8-8-8--8--8-8-8-8--|

G|------------------------------------------------------|
D|------------------------------------------------------|
A|--5--5-5-5-5--5--5-5-5-5--5--5-5-5-5--5--5-5-5-5-5-5--|
E|------------------------------------------------------|

G|------------------------------------------------|
D|--/7-7-7-5---0-7-7-7-5---0-7-7-7-5---0-7-7-7-5--|
A|------------------------------------------------|
E|------------------------------------------------|

G|------------------------------------------------|
D|--/7-7-7-5---0-7-7-7-5---0-7-7-7-5---0-7-7-7-5--|
A|------------------------------------------------|
E|------------------------------------------------|


[Chorus]

G|--------------5--7----------------------5-7--------|
D|--7--5--8--7--------8--7--5h7--5--8--7-------8--7--|
A|---------------------------------------------------|
E|---------------------------------------------------|

G|----------------5--7----------------------5-7--------|
D|--5h7--5--8--7--------8--7--5h7--5--8--7-------8--7--|
A|-----------------------------------------------------|
E|-----------------------------------------------------|

G|--------------------------------------------------|
D|--------------------------------------------------|
A|--------------------------------------------------|
E|--6--6-6-6-6--6--6-6-6-6--8--8-8-8-8--8--8-8-8-8--|

G|-------------------------------------------------------|
D|--/7-7-7-5---0-7-7-7-5---0-7-5--0-7-5--0-7-5--0-7-5-0--|
A|-------------------------------------------------------|
E|-------------------------------------------------------|

G|--------------------------------------------------|
D|--------------------------------------------------|
A|--------------------------------------------------|
E|--6--6-6-6-6--6--6-6-6-6--8--8-8-8-8--8--8-8-8-8--|

G|--------------------------------------------------|
D|--------------------------------------------------|
A|--5--5-5-5-5--5--5-5-5-5--5--5-5-5-5--5--5-5-5-5--|
E|--------------------------------------------------|

G|--------------------------------------------------|
D|--------------------------------------------------|
A|--5--5-5-5-5--5--5-5-5-5--5--5-5-5-5--5--5-5-5-5--|
E|--------------------------------------------------|

G|--------------------------5-7--7-9--5-7--3-5--|
D|----------------------------------------------|
A|--5--5-5-5-5--5--5-5-5-5----------------------|
E|----------------------------------------------|


[Bridge]

G|------------------------------------------------|
D|--/7-7-7-5---0-7-7-7-5---0-7-7-7-5---0-7-7-7-5--|
A|------------------------------------------------|
E|------------------------------------------------|

G|---------------------------------------------------------|
D|--0-7-7-7-5---0-7-7-7-5---0-7-7-7-5---0-7-7-7-5---0-7-7--|
A|---------------------------------------------------------|
E|---------------------------------------------------------|

G|-------------------------------------------------|
D|--0h7-7-7-5---0-7-7-7-5---0-7-7-7-5---0-7-7-7-5--|
A|-------------------------------------------------|
E|-------------------------------------------------|

G|---------------------------------------------------------|
D|--0-7-7-7-5---0-7-7-7-5---0-7-7-7-5---0-7-7-7-5---0-7-7--|
A|---------------------------------------------------------|
E|---------------------------------------------------------|

G|------------------------------------------------|
D|--/7-7-7-5---0-7-7-7-5---0-7-7-7-5---0-7-7-7-5--|
A|------------------------------------------------|
E|------------------------------------------------|

G|---------------------------------------------------------|
D|--0-7-7-7-5---0-7-7-7-5---0-7-7-7-5---0-7-7-7-5---0-7-7--|
A|---------------------------------------------------------|
E|---------------------------------------------------------|

G|------------------------------------------------|
D|--/7-7-7-5---0-7-7-7-5---0-7-7-7-5---0-7-7-7-5--|
A|------------------------------------------------|
E|------------------------------------------------|

G|---------------------------------------------------------|
D|--0-7-7-7-5---0-7-7-7-5---0-7-7-7-5---0-7-7-7-5---0-7-7--|
A|---------------------------------------------------------|
E|---------------------------------------------------------|

G|------------------------------------------------|
D|--/7-7-7-5---0-7-7-7-5---0-7-7-7-5---0-7-7-7-5--|
A|------------------------------------------------|
E|------------------------------------------------|

G|---------------------------------------------------------|
D|--0-7-7-7-5---0-7-7-7-5---0-7-7-7-5---0-7-7-7-5---0-7-7--|
A|---------------------------------------------------------|
E|---------------------------------------------------------|

G|------------------------------------------------|
D|--/7-7-7-5---0-7-7-7-5---0-7-7-7-5---0-7-7-7-5--|
A|------------------------------------------------|
E|------------------------------------------------|

G|---------------------------------------------------------|
D|--0-7-7-7-5---0-7-7-7-5---0-7-7-7-5---0-7-7-7-5---0-7-7--|
A|---------------------------------------------------------|
E|---------------------------------------------------------|

G|------------------------------------------------|
D|--/7-7-7-5---0-7-7-7-5---0-7-7-7-5---0-7-7-7-5--|
A|------------------------------------------------|
E|------------------------------------------------|

G|---------------------------------------------------------|
D|--0-7-7-7-5---0-7-7-7-5---0-7-7-7-5---0-7-7-7-5---0-7-7--|
A|---------------------------------------------------------|
E|---------------------------------------------------------|

G|------------------------------------------------|
D|--/7-7-7-5---0-7-7-7-5---0-7-7-7-5---0-7-7-7-5--|
A|------------------------------------------------|
E|------------------------------------------------|

G|---------------------------------------------------------|
D|--0-7-7-7-5---0-7-7-7-5---0-7-7-7-5---0-7-7-7-5---0-7-7--|
A|---------------------------------------------------------|
E|---------------------------------------------------------|

G|------------------------------------------------|
D|--/7-7-7-5---0-7-7-7-5---0-7-7-7-5---0-7-7-7-5--|
A|------------------------------------------------|
E|------------------------------------------------|

G|---------------------------------------------------------|
D|--0-7-7-7-5---0-7-7-7-5---0-7-7-7-5---0-7-7-7-5---0-7-7--|
A|---------------------------------------------------------|
E|---------------------------------------------------------|

G|------------------------------------------------|
D|--/7-7-7-5---0-7-7-7-5---0-7-7-7-5---0-7-7-7-5--|
A|------------------------------------------------|
E|------------------------------------------------|

G|-------------------------------------------------|
D|--0-7-7-7-5---0-7-7-7-5---0-7-7-7-5---0-7-7-7-5--|
A|-------------------------------------------------|
E|-------------------------------------------------|


[Verse]

G|--------------------------------------------------|
D|--------------------------------------------------|
A|--------------------------------------------------|
E|--6--6-6-6-6--6--6-6-6-6--8--8-8-8-8--8--8-8-8-8--|

G|------------------------------------------------|
D|--/7-7-7-5---0-7-7-7-5---0-7-7-7-5---0-7-7-7-5--|
A|------------------------------------------------|
E|------------------------------------------------|

G|--------------------------------------------------|
D|--------------------------------------------------|
A|--------------------------------------------------|
E|--6--6-6-6-6--6--6-6-6-6--8--8-8-8-8--8--8-8-8-8--|

G|-------|
D|-------|
A|--5~~--|
E|-------|


[Outro]- guitar riff twice then come in. 

G|--------------------------|
D|--------------------------|
A|--------------3--5--------|
E|--5--3--6--5--------6--5--|

G|--------------------------|
D|--------------------------|
A|--------------3--5--------|
E|--5--3--6--5--------6--5--|

G|--------------------------|
D|--------------------------|
A|--------------3--5--------|
E|--5--3--6--5--------6--5--|

G|--------------------------|
D|--------------------------|
A|--------------3--5--------|
E|--5--3--6--5--------6--5--|

G|---------|
D|---------|
A|---------|
E|--3/5~~--|


************************************

| h   Hammer-on
| /   Slide up
| ~   Vibrato

************************************

            
            
Suggest correction
Creating personal tab
Creating personal tab
You can edit any tab online and save it as your Personal.

You can edit, replace or remove any tab part or add personal notes – all changes will be seen only by you.

Personal tabs can be accessed anytime from any device, even offline.
Learn more »
comments
print report bad tab
guest
You may want to rate the tab now too:
select rating
Wanna post a correction for this tab? Suggest correction