Oops, an error
Loading. Please wait.

People Vultures tab

version 1
version 1

Whole song

  • The key to most King Gizz songs is timing, this is... Show more
6,850 views 45 this week
no commentswrite comment
1 2 3 4 5
x 14
add to favorites
×
Save as Personal and add changes to this tab that will be seen only by you. Learn more ›
×
You can save this tab as Personal to edit and correct it or add notes. All changes will be seen only by you. Learn more »
launch autoscroll
font size
0
reset
how to read this tab
guitar tuner
edit
Autoscroll
slow
fast
+/-
esc
set tempo
stop
Here are all the riffs you'll need to play this song! You will just need to figure out the order :)
There is also a solo riff thingy in there that I'm too stoned to figure out so can someone pls help <3


Main Riff 1:
e|---------------------------------------------------------------------------|
B|---------------------------------------------------------------------------|
G|---------------------5---7-------------------------------------------------|
D|---7---5---5/8---7-----------5/8---7---------------------------------------|
A|---------------------------------------------------------------------------|
E|---------------------------------------------------------------------------|

Main Riff 2 (added open notes): 
e|---------------------------------------------------------------------------|
B|---------------------------------------------------------------------------|
G|---------------------5---7-------------------------------------------------|
D|---7---5---5/8---7---0---0-----5/8---7-------------------------------------|
A|---0---0---0-----0-------------0-----0-------------------------------------|
E|---------------------------------------------------------------------------|

Riff 3: "What else have I got left to spew down?"
e|---------------------------------------------------------------------------|
B|---------------------------------------------------------------------------|
G|---5---7---7---9---5---7---3---5-------------------------------------------|
D|---------------------------------------------------------------------------|
A|---------------------------------------------------------------------------|
E|---------------------------------------------------------------------------|

Riff 4:
e|---------------------------------------------------------------------------|
B|---------------------------------------------------------------------------|
G|---------------------------------------------------------------------------|
D|---7---5---7---5-----------------------------------------------------------|
A|---0---0---0---0-----------------------------------------------------------|
E|---------------------------------------------------------------------------|

Riff 5 (this is played with a Wah pedal):
e|---------------------------------------------------------------------------|
B|---------------------------------------------------------------------------|
G|---9---7---5---3---2---0---------------------------------------------------|
D|---------------------------2b--0-------------------------------------------|
A|---------------------------------------------------------------------------|
E|---------------------------------------------------------------------------|



************************************

| b   Bend
| /   Slide up

************************************

            
            
Suggest correction
Creating personal tab
Creating personal tab
You can edit any tab online and save it as your Personal.

You can edit, replace or remove any tab part or add personal notes – all changes will be seen only by you.

Personal tabs can be accessed anytime from any device, even offline.
Learn more »
comments
print report bad tab
guest
You may want to rate the tab now too:
select rating
Wanna post a correction for this tab? Suggest correction