Oops, an error
Loading. Please wait.

People Vultures tab

version 2
version 2

Whole song

  • The key to most King Gizz songs is timing, this is... Show more
467 views 39 this week
no commentswrite comment
1 2 3 4 5
x 3
add to favorites
×
Save as Personal and add changes to this tab that will be seen only by you. Learn more ›
×
You can save this tab as Personal to edit and correct it or add notes. All changes will be seen only by you. Learn more »
launch autoscroll
font size
0
reset
how to read this tab
guitar tuner
edit
Autoscroll
slow
fast
+/-
esc
set tempo
stop
About this tab version
The key to most King Gizz songs is timing, this is no exception. This is the full version of the song, how the band plays it for the most part, and the tab walks you through the whole thing. Was this info helpful? Yes No
Tuning: E A D G B e

[Intro]
e|---------------------------------------------------------------|
B|---------------------------------------------------------------|
G|---------------------------------------------------------------| 
D|-7--5--5/8--7--10--12--8--7------------------------------------|
A|---------------------------------------------------------------|
E|---------------------------------------------------------------|

e|---------------------------------------------------------------|
B|---------------------------------------------------------------|
G|---------------------------------------------------------------| (x2)
D|-7--5--5/8--7--10--12--8--7---7--------------------------------|
A|-0--0--0----0--0---0---0--0---0--------------------------------|
E|---------------------------------------------------------------|

[Chorus]
e|---------------------------------------------------------------|
B|---------------------------------------------------------------|
G|---------------------------------------------------------------| (x3)
D|-7--5--5/8--7--10--12--8--7------------------------------------|
A|-0--0--0----0--0---0---0--0------------------------------------|
E|---------------------------------------------------------------|

e|---------------------------------------------------------------|
B|---------------------------------------------------------------|
G|---------------------------------------------------------------|
D|-7--5--5/8--7--------------------------------------------------|
A|-0--0--0----0--------------------------------------------------|
E|---------------------------------------------------------------|

What else have I got left...

e|---------------------------------------------------------------|
B|---------------------------------------------------------------|
G|-5-7--7-9--5--7--3-5-------------------------------------------|
D|---------------------------------------------------------------|
A|---------------------------------------------------------------|
E|---------------------------------------------------------------|

[Filler]
e|---------|
B|---------| (x8)
G|---------|
D|-7--5----|
A|-0--0----|
E|---------|

[Wah bridge]
e|---------------------------------------------------------------|
B|---------------------------------------------------------------|
G|-9--7-------------------------9--7-----------------------------|
D|--------10--9---7--5-----------------10-9---7--5--7------------|
A|-----------------------7--5------------------------------------|
E|---------------------------------------------------------------|

[Small solo]
e|---------------------------------------------------------------|
B|--------8--------------10b--10-8-------------------------------|
G|-9--7-9---9-7--9--7-9------------------------------------------| (x3)
D|---------------------------------------------------------------|
A|---------------------------------------------------------------|
E|---------------------------------------------------------------|

e|---------------------------------------------------------------|
B|-10--10-8-10--10-8-10--10-8-10---------------------------------|
G|---------------------------------------------------------------|
D|---------------------------------------------------------------|
A|---------------------------------------------------------------|
E|---------------------------------------------------------------|

[Verse]
  {This one's a bit tricky, Heavy WAH usage, all the way back, then slooowly press forward on the transition}
e|---------------------------------------------------------------|
B|---------------------------------------------------------------|
G|---------------------------------------------------------------|
D|-4-4-4-4-4-4-4-4-5-5-5-5-5-5-5-5-------------------------------|
A|-2-2-2-2-2-2-2-2-3-3-3-3-3-3-3-3-------------------------------|
E|---------------------------------------------------------------|

e|---------|
B|---------| (x4)
G|---------|
D|-7--5----|
A|-0--0----|
E|---------|

e|---------------------------------------------------------------|
B|---------------------------------------------------------------|
G|---------------------------------------------------------------|
D|-4-4-4-4-4-4-4-4-5-5-5-5-5-5-5-5-------------------------------|
A|-2-2-2-2-2-2-2-2-3-3-3-3-3-3-3-3-------------------------------|
E|---------------------------------------------------------------|

e|---------------------------------------------------------------|
B|---------------------------------------------------------------|
G|-7--5---7--5---7--5---7---5-7-8-7-5----------------------------|
D|-0--0---0--0---0--0---0----------------------------------------|
A|---------------------------------------------------------------|
E|---------------------------------------------------------------|

e|---------|
B|---------| (x8)
G|---------|
D|-7--5----|
A|-0--0----|
E|---------|

[Verse 2]
e|---------------------------------------------------------------|
B|---------------------------------------------------------------|
G|---------------------------------------------------------------|
D|-4-4-4-4-4-4-4-4-5-5-5-5-5-5-5-5-------------------------------|
A|-2-2-2-2-2-2-2-2-3-3-3-3-3-3-3-3-------------------------------|
E|---------------------------------------------------------------|

e|---------|
B|---------| (x4)
G|---------|
D|-7--5----|
A|-0--0----|
E|---------|

e|---------------------------------------------------------------|
B|---------------------------------------------------------------|
G|---------------------------------------------------------------|
D|-4-4-4-4-4-4-4-4-5-5-5-5-5-5-5-5-------------------------------|
A|-2-2-2-2-2-2-2-2-3-3-3-3-3-3-3-3-------------------------------|
E|---------------------------------------------------------------|

e|---------------------------------------------------------------|
B|---------------------------------------------------------------|
G|-7--5---7--5---7--5---7---5-7-8-7-5----------------------------|
D|-0--0---0--0---0--0---0----------------------------------------|
A|---------------------------------------------------------------|
E|---------------------------------------------------------------|

[Filler]
e|---------|
B|---------| (x8)
G|---------|
D|-7--5----|
A|-0--0----|
E|---------|

[Chorus]
e|---------------------------------------------------------------|
B|---------------------------------------------------------------|
G|---------------------------------------------------------------| (x3)
D|-7--5--5/8--7--10--12--8--7------------------------------------|
A|-0--0--0----0--0---0---0--0------------------------------------|
E|---------------------------------------------------------------|

e|---------------------------------------------------------------|
B|---------------------------------------------------------------|
G|---------------------------------------------------------------|
D|-7--5--5/8--7--------------------------------------------------|
A|-0--0--0----0--------------------------------------------------|
E|---------------------------------------------------------------|

e|---------------------------------------------------------------|
B|---------------------------------------------------------------|
G|-5-7--7-9--5--7--3-5-------------------------------------------|
D|---------------------------------------------------------------|
A|---------------------------------------------------------------|
E|---------------------------------------------------------------|

[Small solo]
e|---------------------------------------------------------------|
B|--------8--------------10b--10-8-------------------------------|
G|-9--7-9---9-7--9--7-9------------------------------------------| (x2)
D|---------------------------------------------------------------|
A|---------------------------------------------------------------|
E|---------------------------------------------------------------|

e|----------8-----------------10b--10-8--------------------------|
B|-10--8-10---10-8--10--8-10-------------------------------------|
G|---------------------------------------------------------------|
D|---------------------------------------------------------------|
A|---------------------------------------------------------------|
E|---------------------------------------------------------------|

e|-10--10-8-10--10-8-10--10-8-10---------------------------------|
B|---------------------------------8-10-11-10-8------------------|
G|---------------------------------------------------------------|
D|---------------------------------------------------------------|
A|---------------------------------------------------------------|
E|---------------------------------------------------------------|

e|---------|
B|---------| (x6)
G|---------|
D|-7--5----|
A|-0--0----|
E|---------|

[Chorus]
e|---------------------------------------------------------------|
B|---------------------------------------------------------------|
G|---------------------------------------------------------------| (x3)
D|-7--5--5/8--7--10--12--8--7------------------------------------|
A|-0--0--0----0--0---0---0--0------------------------------------|
E|---------------------------------------------------------------|

e|---------------------------------------------------------------|
B|---------------------------------------------------------------|
G|---------------------------------------------------------------|
D|-7--5--5/8--7--------------------------------------------------|
A|-0--0--0----0--------------------------------------------------|
E|---------------------------------------------------------------|

e|---------------------------------------------------------------|
B|---------------------------------------------------------------|
G|-5-7--7-9--5--7--3-5-------------------------------------------|
D|---------------------------------------------------------------|
A|---------------------------------------------------------------|
E|---------------------------------------------------------------|

[MORE What else...]
e|---------------------------------------------------------------|
B|---------------------------------------------------------------|
G|---------------------------------------------------------------|
D|-4-4-4-4-4-4-4-4-5-5-5-5-5-5-5-5-------------------------------|
A|-2-2-2-2-2-2-2-2-3-3-3-3-3-3-3-3-------------------------------|
E|---------------------------------------------------------------|

e|---------|
B|---------| (x2)
G|---------|
D|-7--5----|
A|-0--0----|
E|---------|

e|---------------------------------------------------------------|
B|---------------------------------------------------------------|
G|-5-7--7-9--5--7--3-5-------------------------------------------|
D|---------------------------------------------------------------|
A|---------------------------------------------------------------|
E|---------------------------------------------------------------|

e|---------------------------------------------------------------|
B|---------------------------------------------------------------|
G|---------------------------------------------------------------|
D|-4-4-4-4-4-4-4-4-5-5-5-5-5-5-5-5-------------------------------|
A|-2-2-2-2-2-2-2-2-3-3-3-3-3-3-3-3-------------------------------|
E|---------------------------------------------------------------|

e|---------|                                                       ]
B|---------| (x2)                                                  ]
G|-7--5----|                                                       ]
D|-0--0----|                                                       ]
A|---------|                                                       ]
E|---------|                                                       ] (x3)
                                                                   ]
e|---------------------------------------------------------------| ]
B|---------------------------------------------------------------| ]
G|-5-7--7-9--5--7--3-5-------------------------------------------| ]
D|---------------------------------------------------------------| ]
A|---------------------------------------------------------------| ]
E|---------------------------------------------------------------| ]

[EXTENDED FILLER]

e|------------------------------------------------------------------|
B|------------------------------------------------------------------|
G|------------------------------------------------------------------| (x4)
D|-7--5---7--5---7--5---7--5---7--5---7--5---7--5---7---5-7-8-7-5---|
A|-0--0---0--0---0--0---0--0---0--0---0--0---0--0---0---------------|
E|------------------------------------------------------------------|

[Wah bridge]
e|----------------------------------------------------------------|
B|----------------------------------------------------------------|
G|-9--7-------------------------9--7------------------------------| (x4)
D|--------10--9---7--5-----------------10-9---7--5--7---5-7-8-7-5-|
A|-----------------------7--5-------------------------------------|
E|----------------------------------------------------------------|

e|---------------------------------------------------------------|
B|---------------------------------------------------------------|
G|---------------------------------------------------------------|
D|-5-7-8-7-5--7--------------------------------------------------|
A|------------0--------------------------------------------------|
E|---------------------------------------------------------------|

[Outro]
e|---------------------------------------------------------------|
B|---------------------------------------------------------------|
G|---------------------------------------------------------------|
D|-4-4-4-4-4-4-4-4-5-5-5-5-5-5-5-5-------------------------------|
A|-2-2-2-2-2-2-2-2-3-3-3-3-3-3-3-3-------------------------------|
E|---------------------------------------------------------------|

e|---------------------------------------------------------------|
B|---------------------------------------------------------------|
G|---------------------------------------------------------------|
D|-7--5--5/8--7--10--12--8--7---7--------------------------------|
A|-0--0--0----0--0---0---0--0---0--------------------------------|
E|---------------------------------------------------------------|

e|---------------------------------------------------------------|
B|---------------------------------------------------------------|
G|---------------------------------------------------------------|
D|-4-4-4-4-4-4-4-4-5-5-5-5-5-5-5-5---7---------------------------|
A|-2-2-2-2-2-2-2-2-3-3-3-3-3-3-3-3---0---------------------------|
E|---------------------------------------------------------------|

e|---------------------------------------------------------------|
B|---------------------------------------------------------------|
G|---------------------------------------------------------------| (x2)
D|-7--5--5/8--7--10--12--8--7------------------------------------|
A|---------------------------------------------------------------|
E|---------------------------------------------------------------|

e|---------------------------------------------------------------|
B|---------------------------------------------------------------|
G|---------------------------------------------------------------| (x3)
D|-7--5--5/8--7--10--12--8--7------------------------------------|
A|-0--0--0----0--0---0---0--0------------------------------------|
E|---------------------------------------------------------------|

e|---------------------------------------------------------------|
B|---------------------------------------------------------------|
G|---------------------------------------------------------------|
D|-7--5--5/8--7--10--12--8--7---7--------------------------------|
A|-0--0--0----0--0---0---0--0---0--------------------------------|
E|---------------------------------------------------------------|


**********************************************************************************

| /  slide up
| \  slide down
| b  bend

**********************************************************************************

            
            
Suggest correction
Creating personal tab
Creating personal tab
You can edit any tab online and save it as your Personal.

You can edit, replace or remove any tab part or add personal notes – all changes will be seen only by you.

Personal tabs can be accessed anytime from any device, even offline.
Learn more »
Give kudos to tab author, rate the tab!
1 2 3 4 5
comments
print report bad tab
guest
You may want to rate the tab now too:
select rating
Wanna post a correction for this tab? Suggest correction