Oops, an error
Loading. Please wait.

Pop In My Step bass

559 views 9 this week
no commentswrite comment
1 2 3 4 5
x 3
add to favorites
×
Save as Personal and add changes to this tab that will be seen only by you. Learn more ›
×
You can save this tab as Personal to edit and correct it or add notes. All changes will be seen only by you. Learn more »
launch autoscroll
font size
0
reset
guitar tuner
edit
Autoscroll
slow
fast
+/-
esc
set tempo
stop
Author
                     //KING GIZZARD & THE LIZARD WIZARD - POP IN MY STEP//
Tabbed by: bunii
Tuning: Standard 

this should be mostly accurate! the only thing i'm not 100% on is the amount of times some 
parts are repeated. 
please tell me if you see an error! the tune is easy enough if you listen through a bit. 
thank you!!!

come in at 0:47

G|---------------------------|---------------------------------|
D|-------------------6-------|-7-7-7-7-7-7-7-7-7-7-7-7-7-6-----|
A|-----7-----7-----7-------7-|-----------------------------9-7-| x2
E|-7-9---7-9---7-9-----7-9---|---------------------------------|

G|---------------------------|
D|-------------------6-------|
A|-----7-----7-----7-------7-| x2
E|-7-9---7-9---7-9-----7-9---|


G|-------------------------|
D|-------------------------|
A|-----7-----7-----7-----7-| 
E|-7-9---7-9---7-9---7-9---|

G|---------------------------|---------------------------------|
D|-------------------6-------|-7-7-7-7-7-7-7-7-7-7-7-7-7-6-----|
A|-----7-----7-----7-------7-|-----------------------------9-7-| x2
E|-7-9---7-9---7-9-----7-9---|---------------------------------|

G|-------------------|----------------------|
D|-----6-7-9h11-9h11-|------8-9-11h13-11h13-|
A|-7-9---------------|-9-11-----------------|
E|-------------------|----------------------|

  
G|---------------------------|
D|-------------------6-------|
A|-----7-----7-----7-------7-| x2
E|-7-9---7-9---7-9-----7-9---|


G|---------------------------|---------------------------------|
D|-------------------6-------|-7-7-7-7-7-7-7-7-7-7-7-7-7-6-----|
A|-----7-----7-----7-------7-|-----------------------------9-7-| x2
E|-7-9---7-9---7-9-----7-9---|---------------------------------|


G|-------------------|----------------------|-------------------------|-------------------------|
D|-----6-7-9h11-9h11-|------8-9-11h13-11h13-|-------10-11-13h15-13h15-|-------12-13-15h17-15h17-|
A|-7-9---------------|-9-11-----------------|-11-13-------------------|-13-15-------------------|
E|-------------------|----------------------|-------------------------|-------------------------|

G|---------------------------|---------------------------|
D|-------------------6-------|---------------------------|
A|-----7-----7-----7-------7-|-----7-----7-----7-6-7-6-7~|
E|-7-9---7-9---7-9-----7-9---|-7-9---7-9---7-9-----------|

Suggest correction
Creating personal tab
Creating personal tab
You can edit any tab online and save it as your Personal.

You can edit, replace or remove any tab part or add personal notes – all changes will be seen only by you.

Personal tabs can be accessed anytime from any device, even offline.
Learn more »
Give kudos to tab author, rate the tab!
1 2 3 4 5
comments
print report bad tab
guest
You may want to rate the tab now too:
select rating
Wanna post a correction for this tab? Suggest correction