Oops, an error
Loading. Please wait.

Robot Stop bass

version 1
version 1

Whole song

Interactive

1,000 views 36 this week
no commentswrite comment
1 2 3 4 5
2 more votes to show rating
add to favorites
×
Save as Personal and add changes to this tab that will be seen only by you. Learn more ›
×
You can save this tab as Personal to edit and correct it or add notes. All changes will be seen only by you. Learn more »
launch autoscroll
font size
0
reset
guitar tuner
edit
Autoscroll
slow
fast
+/-
esc
set tempo
stop
Author
Difficulty
[Intro]
"Nonagon Infinity opens the door."
 -bass enters at about 9 seconds. 

G|-----------------------------------------------------------|
D|-----------------------------------------------------------|
A|------7--7-7---7-7----7--7~-------7--7-7---7-7----5-5-5-5--|
E|--0-0--------0------0---------0-0--------0------0----------|

G|-----------------------------------------------------|
D|-----------------------------------------------------|
A|------7--7-7---7-7----7--7~-------7--7-7---7-7----5--|
E|--0-0--------0------0---------0-0--------0------0----|

G|-------------------------------------------------|
D|-------------------------------------------------|
A|------7--7-7---7-7----7-------7--7-7---7-7----7--|
E|--0-0--------0------0-----0-0--------0------0----|

G|-------------------------|
D|-------------------------|
A|------7--7-7---7-7----7--|
E|--0-0--------0------0----|

G|-----------------------------------------------------------|
D|-----------------------------------------------------------|
A|------7--7-7---7-7----7--7~-------7--7-7---7-7----5-5-5-5--|
E|--0-0--------0------0---------0-0--------0------0----------|

G|-----------------------------------------------------------|
D|-----------------------------------------------------------|
A|------7--7-7---7-7----7--7~-------7--7-7---7-7----5-5-5-5--|
E|--0-0--------0------0---------0-0--------0------0----------|


[Verse]

G|-----------------------------------------------------------|
D|-----------------------------------------------------------|
A|------7--7-7---7-7----7--7~-------7--7-7---7-7----5-5-5-5--|
E|--0-0--------0------0---------0-0--------0------0----------|

G|-----------------------------------------------------|
D|-----------------------------------------------------|
A|------7--7-7---7-7----7--7~-------7--7-7---7-7----5--|
E|--0-0--------0------0---------0-0--------0------0----|

G|-------------------------------------------------|
D|-------------------------------------------------|
A|------7--7-7---7-7----7-------7--7-7---7-7----7--|
E|--0-0--------0------0-----0-0--------0------0----|

G|-------------------------|
D|-------------------------|
A|------7--7-7---7-7----7--|
E|--0-0--------0------0----|

G|-----------------------------------------------------------|
D|-----------------------------------------------------------|
A|------7--7-7---7-7----7--7~-------7--7-7---7-7----5-5-5-5--|
E|--0-0--------0------0---------0-0--------0------0----------|

G|-----------------------------------------------------|
D|-----------------------------------------------------|
A|------7--7-7---7-7----7--7~-------7--7-7---7-7----5--|
E|--0-0--------0------0---------0-0--------0------0----|


[Chorus]

G|----------------------------------------------------|
D|----------------------------------------------------|
A|------7------7--5/7-7-7-------7------7--10-10-10-9--|
E|--0-0----0-0--------------0-0----0-0----------------|

G|----------------------------------------------------|
D|----------------------------------------------------|
A|------7------7--5/7-7-7-------7------7--10-10-10-9--|
E|--0-0----0-0--------------0-0----0-0----------------|

G|----------------------------------------------------|
D|----------------------------------------------------|
A|------7------7--5/7-7-7-------7------7--10-10-10-9--|
E|--0-0----0-0--------------0-0----0-0----------------|

G|----------------------------------------------------|
D|----------------------------------------------------|
A|------7------7--5/7-7-7-------7------7--10-10-10-9--|
E|--0-0----0-0--------------0-0----0-0----------------|

G|-------------------------------------------------------------------|
D|-------------------------------------------------------------------|
A|--0-0-0-0-0-0-0-0-2-2-2-2-2-2-2-2-3-3-3-3-3-3-4-4-5-5-5-5-5-5-6-6--|
E|-------------------------------------------------------------------|


[Pre-Verse]

G|-----------------------------------------------------------|
D|-----------------------------------------------------------|
A|------7--7-7---7-7----7--7~-------7--7-7---7-7----5-5-5-5--|
E|--0-0--------0------0---------0-0--------0------0----------|

G|-------------------------------------------------------|
D|-------------------------------------------------------|
A|------7--7-7---7-7----7--7~-------7--7-7----7h9-7-5-5--|
E|--0-0--------0------0---------0-0--------0-------------|

G|-------------------------------------------------|
D|-------------------------------------------------|
A|------7--7-7---7-7----7-------7--7-7---7-7----7--|
E|--0-0--------0------0-----0-0--------0------0----|

G|-------------------------|
D|-------------------------|
A|------7--7-7---7-7----7--|
E|--0-0--------0------0----|


[Verse]

G|-----------------------------------------------------------|
D|-----------------------------------------------------------|
A|------7--7-7---7-7----7--7~-------7--7-7---7-7----5-5-5-5--|
E|--0-0--------0------0---------0-0--------0------0----------|

G|-----------------------------------------------------|
D|-----------------------------------------------------|
A|------7--7-7---7-7----7--7~-------7--7-7---7-7----5--|
E|--0-0--------0------0---------0-0--------0------0----|


[Chorus]

G|----------------------------------------------------|
D|----------------------------------------------------|
A|------7------7--5/7-7-7-------7------7--10-10-10-9--|
E|--0-0----0-0--------------0-0----0-0----------------|

G|----------------------------------------------------|
D|----------------------------------------------------|
A|------7------7--5/7-7-7-------7------7--10-10-10-9--|
E|--0-0----0-0--------------0-0----0-0----------------|

G|----------------------------------------------------|
D|----------------------------------------------------|
A|------7------7--5/7-7-7-------7------7--10-10-10-9--|
E|--0-0----0-0--------------0-0----0-0----------------|

G|----------------------------------------------------|
D|----------------------------------------------------|
A|------7------7--5/7-7-7-------7------7--10-10-10-9--|
E|--0-0----0-0--------------0-0----0-0----------------|

G|-------------------------------------------------------------------|
D|-------------------------------------------------------------------|
A|--0-0-0-0-0-0-0-0-2-2-2-2-2-2-2-2-3-3-3-3-3-3-4-4-5-5-5-5-5-5-6-6--|
E|-------------------------------------------------------------------|

G|-----------------------------------------------------------|
D|-----------------------------------------------------------|
A|------7--7-7---7-7----7--7~-------7--7-7---7-7----5-5-5-5--|
E|--0-0--------0------0---------0-0--------0------0----------|

G|-------------------------------------------------------------------|
D|-------------------------------------------------------------------|
A|--0-0-0-0-0-0-0-0-2-2-2-2-2-2-2-2-3-3-3-3-3-3-4-4-5-5-5-5-5-5-6-6--|
E|-------------------------------------------------------------------|


[Bridge/Solos]

G|-----------------------------------------------------------|
D|-----------------------------------------------------------|
A|------7--7-7---7-7----7--7~-------7--7-7---7-7----5-5-5-5--|
E|--0-0--------0------0---------0-0--------0------0----------|

G|-----------------------------------------------------------|
D|-----------------------------------------------------------|
A|------7--7-7---7-7----7--7~-------7--7-7---7-7----5-5-5-5--|
E|--0-0--------0------0---------0-0--------0------0----------|

G|-----------------------------------------------------------|
D|-----------------------------------------------------------|
A|------7--7-7---7-7----7--7~-------7--7-7---7-7----5-5-5-5--|
E|--0-0--------0------0---------0-0--------0------0----------|

G|-----------------------------------------------------------|
D|-----------------------------------------------------------|
A|------7--7-7---7-7----7--7~-------7--7-7---7-7----5-5-5-5--|
E|--0-0--------0------0---------0-0--------0------0----------|

G|-----------------------------------------------------------|
D|-----------------------------------------------------------|
A|------7--7-7---7-7----7--7~-------7--7-7---7-7----5-5-5-5--|
E|--0-0--------0------0---------0-0--------0------0----------|

G|-----------------------------------------------------------|
D|-----------------------------------------------------------|
A|------7--7-7---7-7----7--7~-------7--7-7---7-7----5-5-5-5--|
E|--0-0--------0------0---------0-0--------0------0----------|

G|-----------------------------------------------------------|
D|-----------------------------------------------------------|
A|------7--7-7---7-7----7--7~-------7--7-7---7-7----5-5-5-5--|
E|--0-0--------0------0---------0-0--------0------0----------|

G|-----------------------------------------------------------|
D|-----------------------------------------------------------|
A|------7--7-7---7-7----7--7~-------7--7-7---7-7----5-5-5-5--|
E|--0-0--------0------0---------0-0--------0------0----------|

G|-----------------------------------------------------------|
D|-----------------------------------------------------------|
A|------7--7-7---7-7----7--7~-------7--7-7---7-7----5-5-5-5--|
E|--0-0--------0------0---------0-0--------0------0----------|

G|-----------------------------------------------------------|
D|-----------------------------------------------------------|
A|------7--7-7---7-7----7--7~-------7--7-7---7-7----5-5-5-5--|
E|--0-0--------0------0---------0-0--------0------0----------|

G|-----------------------------------------------------------|
D|-----------------------------------------------------------|
A|------7--7-7---7-7----7--7~-------7--7-7---7-7----5-5-5-5--|
E|--0-0--------0------0---------0-0--------0------0----------|

G|-----------------------------------------------------------|
D|-----------------------------------------------------------|
A|------7--7-7---7-7----7--7~-------7--7-7---7-7----5-5-5-5--|
E|--0-0--------0------0---------0-0--------0------0----------|

G|-----------------------------------------------------------|
D|-----------------------------------------------------------|
A|------7--7-7---7-7----7--7~-------7--7-7---7-7----5-5-5-5--|
E|--0-0--------0------0---------0-0--------0------0----------|

G|-----------------------------------------------------------|
D|-----------------------------------------------------------|
A|------7--7-7---7-7----7--7~-------7--7-7---7-7----5-5-5-5--|
E|--0-0--------0------0---------0-0--------0------0----------|

 ("Big Fig Wasp" guitar riff)
G|-----------------------------------------------------------|
D|-----------------------------------------------------------|
A|------7--7-7---7-7----7--7~-------7--7-7---7-7----5-5-5-5--|
E|--0-0--------0------0---------0-0--------0------0----------|

G|-----------------------------------------------------------|
D|-----------------------------------------------------------|
A|------7--7-7---7-7----7--7~-------7--7-7---7-7----5-5-5-5--|
E|--0-0--------0------0---------0-0--------0------0----------|

G|-------------------------------------------------------7-9--|
D|-------------------------------------------------5-7-9------|
A|------7--7-7---7-7----7-7~-------7--7-7---7--5-7------------|
E|--0-0--------0------0--------0-0--------0-------------------|

G|-------------------------------------------------------7-9--|
D|-------------------------------------------------5-7-9------|
A|------7--7-7---7-7----7-7~-------7--7-7---7--5-7------------|
E|--0-0--------0------0--------0-0--------0-------------------|

G|-----------------------------------------------------------|
D|-----------------------------------------------------------|
A|------7--7-7---7-7----7--7~-------7--7-7---7-7----5-5-5-5--|
E|--0-0--------0------0---------0-0--------0------0----------|

G|-----------------------------------------------------------|
D|-----------------------------------------------------------|
A|------7--7-7---7-7----7--7~-------7--7-7---7-7----5-5-5-5--|
E|--0-0--------0------0---------0-0--------0------0----------|

 ("Hot Water" guitar riff)
G|----------------------------------------------------------|
D|----------------------------------------------------------|
A|------7--7-7---7-7----7-7~-------7--7-7----5-7-5~---------|
E|--0-0--------0------0--------0-0--------5~--------5-7-5~--|

G|------------------------------------------------------------|
D|------------------------------------------------------------|
A|------7--7-7---7-7----7-7~-------7--7-7----5-7-5~------5----|
E|--0-0--------0------0--------0-0--------5~---------0-7---5--|

G|-----------------------------------------------------------|
D|-----------------------------------------------------------|
A|------7--7-7---7-7----7--7~-------7--7-7---7-7----5-5-5-5--|
E|--0-0--------0------0---------0-0--------0------0----------|

G|-----------------------------------------------------------|
D|-----------------------------------------------------------|
A|------7--7-7---7-7----7--7~-------7--7-7---7-7----5-5-5-5--|
E|--0-0--------0------0---------0-0--------0------0----------|

G|-----------------------------------------------------------|
D|-----------------------------------------------------------|
A|------7--7-7---7-7----7--7~-------7--7-7---7-7----5-5-5-5--|
E|--0-0--------0------0---------0-0--------0------0----------|

G|-----------------------------------------------------|
D|-----------------------------------------------------|
A|------7--7-7---7-7----7--7~-------7--7-7---7-7----5--|
E|--0-0--------0------0---------0-0--------0------0----|


[Chorus]-bass sits out for one chorus. comes back 
         at about 4:37.

G|-----------------------------------------------|
D|-----------------------------------------------|
A|------7------7----7~-7-------7------7----7~-7--|
E|--0-0----0-0----0--------0-0----0-0----0-------|

G|----------------------------------------------------|
D|----------------------------------------------------|
A|------7------7--5/7-7-7-------7------7--10-10-10-9--|
E|--0-0----0-0--------------0-0----0-0----------------|

G|-------------------------------------------------------------------|
D|-------------------------------------------------------------------|
A|--0-0-0-0-0-0-0-0-2-2-2-2-2-2-2-2-3-3-3-3-3-3-4-4-5-5-5-5-5-5-6-6--|
E|-------------------------------------------------------------------|

G|-----------------------------------------------------------|
D|-----------------------------------------------------------|
A|------7--7-7---7-7----7--7~-------7--7-7---7-7----5-5-5-5--|
E|--0-0--------0------0---------0-0--------0------0----------|

G|-----------------------------------------------------|
D|-----------------------------------------------------|
A|------7--7-7---7-7----7--7~-------7--7-7---7-7----5--|
E|--0-0--------0------0---------0-0--------0------0----|


[Outro]

G|--------------------------------------------------|
D|--------------------------------------------------|
A|------7--7-7---7-7----7---5--5--5-5-5--5--5--5-5--|
E|--0-0--------0------0-----------------------------|

G|---------------------------------------------------|
D|---------------------------------------------------|
A|--3--3--3-3-3--3--3--3-3---1--1--1-1-1--1--1--1-1--|
E|---------------------------------------------------|

G|---------------------------------------------------|
D|---------------------------------------------------|
A|---------------------------------------------------|
E|--4--4--4-4-4--4--4--4-4---2--2--2-2-2--2--2--2-2--|

G|----------------------------------------------------|
D|----------------------------------------------------|
A|------7------7--5/7-7-7-------7------7--10-10-10-9--|
E|--0-0----0-0--------------0-0----0-0----------------|

G|---------------------------------------------|
D|---------------------------------------------|
A|------7------7--5/7-7-7-------7------7--/8~--|
E|--0-0----0-0--------------0-0----0-0---------|


************************************

| h   Hammer-On
| /   Slide up
| ~   Vibrato

************************************

            
            
Suggest correction
Creating personal tab
Creating personal tab
You can edit any tab online and save it as your Personal.

You can edit, replace or remove any tab part or add personal notes – all changes will be seen only by you.

Personal tabs can be accessed anytime from any device, even offline.
Learn more »
Give kudos to tab author, rate the tab!
1 2 3 4 5
comments
print report bad tab
guest
You may want to rate the tab now too:
select rating
Wanna post a correction for this tab? Suggest correction