Oops, an error
Loading. Please wait.

Robot Stop Tab

version 2
version 2

Whole song

115 views 48 this week
no commentswrite comment
1 2 3 4 5
3 more votes to show rating
add to favorites
launch autoscroll
font size
0
reset
how to read this tab
guitar tuner
Autoscroll
slow
fast
+/-
esc
set tempo
stop
Help us to improve Ultimate-Guitar.com Take our survey!
×
Author
Thought id tab this properly, and fully, with almost every solo and lick covered, im pretty sure.
Written by Ashton :)


[Intro]
(Nonagon infinity opens the door...)
e|-----------------------------------------------------|
B|-----------------------------------------------------|
G|-----------------------------------------------------|
D|-----------------------------------------------------|
A|-7-7-7-7-7-7-7-7-5-5-7-7---7-7-7-7-7-7-7-7-10-10-9-9-|
E|-----------------------------------------------------|
Play this twice before starting the next section

[Bridge] (pre-verse?)
Guitar 1:
e|----------------------------------|
B|----------------------------------|
G|-----9---9-9---9---9---9-9---9----|
D|-----9---9-9---9---9---9-9---9----|
A|-7-7-7-7-7-7-7-7-7-7-7-7-7-7-7-7--|
E|----------------------------------|
Keep repeating this until the verse comes and the riff changes slightly

Guitar 2:

e|------------------------------------|
B|-17\-15\-12\-10---------------------|
G|---------------------7b---7b-7b---4b|
D|------------------------------------|
A|------------------------------------|
E|------------------------------------|
Listen to the song to get the placement right here



After the section above play this once through with guitar 1 still playing

Guitar 2:

e|-7h10-7h10-7h10-7h10-7h10-7h10-7h10-5h8-5h8-5h8-5h8-5h8-5h8-5h8-3h6-3h6-3h6-3h6-|
B|--------------------------------------------------------------------------------|
G|--------------------------------------------------------------------------------|
D|--------------------------------------------------------------------------------|
A|--------------------------------------------------------------------------------|
E|--------------------------------------------------------------------------------|



[Verse]


(Loosen up, time to drop, fuck shit up, 
dont forget about it...)

Guitar 1:
e|---------------------------------------|
B|---------------------------------------|
G|-----9---9-9---9---9---9-9---9-7-7-7-7-|
D|-----9---9-9---9---9---9-9---9-7-7-7-7-|
A|-7-7-7-7-7-7-7-7-7-7-7-7-7-7-7-5-5-5-5-|
E|---------------------------------------|

After six bars of this riff play this again...

Guitar 1:

e|----------------------------------|
B|----------------------------------|
G|-----9---9-9---9---9---9-9---9----|
D|-----9---9-9---9---9---9-9---9----|
A|-7-7-7-7-7-7-7-7-7-7-7-7-7-7-7-7--|
E|----------------------------------|


Guitar 2:

e|-7h10-7h10-7h10-7h10-7h10-7h10-7h10-5h8-5h8-5h8-5h8-5h8-5h8-5h8-3h6-3h6-3h6-3h6--|
B|---------------------------------------------------------------------------------|
G|---------------------------------------------------------------------------------|
D|---------------------------------------------------------------------------------|
A|---------------------------------------------------------------------------------|
E|---------------------------------------------------------------------------------|

Now play four more bars of the riff below

e|---------------------------------------|
B|---------------------------------------|
G|-----9---9-9---9---9---9-9---9-7-7-7-7-|
D|-----9---9-9---9---9---9-9---9-7-7-7-7-|
A|-7-7-7-7-7-7-7-7-7-7-7-7-7-7-7-5-5-5-5-|
E|---------------------------------------|



[Pre-Chorus]

Guitar 1:

e|---------------------------------|
B|---------------------------------|
G|-----9---9-9---9---9---9-9---9---|
D|-----9---9-9---9---9---9-9---9---|
A|-7-7-7-7-7-7-7-7-7-7-7-7-7-7-7-7-|
E|---------------------------------|

(My body's overworked...)
Guitar 2:
e|----------------------------------------------------------|
B|----------------------------------------------------------|
G|----------------------------------------------------------|
D|-----2-4-7-9--------2-4-7-9----9-7-4-7-4-4----9-7-4-2-----|
A|-2-5------------2-5-----------------------------------5-2-|
E|----------------------------------------------------------|
Play this through twice before going to chorus



[Chorus]

e|-0-0-0-0-0-0-0-0-------------------------------------------------|
B|-0-0-0-0-0-0-0-0-------------------------------------------------|
G|-2-2-2-2-2-2-2-2-4-4-4-4-4-4-4-4-5-5-5-5-5-5-5-5-7-7-7-7-7-7-7-7-|
D|-2-2-2-2-2-2-2-2-4-4-4-4-4-4-4-4-5-5-5-5-5-5-5-5-7-7-7-7-7-7-7-7-|
A|-0-0-0-0-0-0-0-0-2-2-2-2-2-2-2-2-3-3-3-3-3-3-3-3-5-5-5-5-5-5-5-5-|
E|-0-0-0-0-0-0-0-0-0-0-0-0-0-0-0-0-0-0-0-0-0-0-0-0-0-0-0-0-0-0-0-0-|

[Bridge]

Guitar 1:
e|-------------------------------|
B|-------------------------------|
G|---9---9-9---9---9---9-9---9---|
D|---9---9-9---9---9---9-9---9---|
A|-7-7-7-7-7-7-7-7-7-7-7-7-7-7-7-|
E|-------------------------------|

Guitar 2:
e|--------------------------------------|
B|-17\-15\-12\-10-----------------------|
G|---------------------7b---7b-7b--4b---|
D|--------------------------------------|
A|--------------------------------------|
E|--------------------------------------|

e|-7h10-7h10-7h10-7h10-7h10-7h10-7h10-5h8-5h8-5h8-5h8-5h8-5h8-5h8-3h6-3h6-3h6-3h6--|
B|---------------------------------------------------------------------------------|
G|---------------------------------------------------------------------------------|
D|---------------------------------------------------------------------------------|
A|---------------------------------------------------------------------------------|
E|---------------------------------------------------------------------------------|



[Verse]

e|---------------------------------------|
B|---------------------------------------|
G|-----9---9-9---9---9---9-9---9-7-7-7-7-|
D|-----9---9-9---9---9---9-9---9-7-7-7-7-|
A|-7-7-7-7-7-7-7-7-7-7-7-7-7-7-7-5-5-5-5-|
E|---------------------------------------|
(Six times)



[Pre-Chorus]

Guitar 1:
e|---------------------------------|
B|---------------------------------|
G|-----9---9-9---9---9---9-9---9---|
D|-----9---9-9---9---9---9-9---9---|
A|-7-7-7-7-7-7-7-7-7-7-7-7-7-7-7-7-|
E|---------------------------------|

Guitar 2:
e|----------------------------------------------------------|
B|----------------------------------------------------------|
G|----------------------------------------------------------|
D|-----2-4-7-9--------2-4-7-9----9-7-4-7-4-4----9-7-4-2-----|
A|-2-5------------2-5-----------------------------------5-2-|
E|----------------------------------------------------------|
(Two times)


[Chorus]

e|-0-0-0-0-0-0-0-0-------------------------------------------------|
B|-0-0-0-0-0-0-0-0-------------------------------------------------|
G|-2-2-2-2-2-2-2-2-4-4-4-4-4-4-4-4-5-5-5-5-5-5-5-5-7-7-7-7-7-7-7-7-|
D|-2-2-2-2-2-2-2-2-4-4-4-4-4-4-4-4-5-5-5-5-5-5-5-5-7-7-7-7-7-7-7-7-|
A|-0-0-0-0-0-0-0-0-2-2-2-2-2-2-2-2-3-3-3-3-3-3-3-3-5-5-5-5-5-5-5-5-|
E|-0-0-0-0-0-0-0-0-0-0-0-0-0-0-0-0-0-0-0-0-0-0-0-0-0-0-0-0-0-0-0-0-|



[Verse]

e|-------------------------------------|
B|-------------------------------------|
G|-----9---9-9---9---9---9-9---9-7-7-7-|
D|-----9---9-9---9---9---9-9---9-7-7-7-|
A|-7-7-7-7-7-7-7-7-7-7-7-7-7-7-7-5-5-5-|
E|-------------------------------------|
(Four times)



[Chorus]

e|-0-0-0-0-0-0-0-0-------------------------------------------------|
B|-0-0-0-0-0-0-0-0-------------------------------------------------|
G|-2-2-2-2-2-2-2-2-4-4-4-4-4-4-4-4-5-5-5-5-5-5-5-5-7-7-7-7-7-7-7-7-|
D|-2-2-2-2-2-2-2-2-4-4-4-4-4-4-4-4-5-5-5-5-5-5-5-5-7-7-7-7-7-7-7-7-|
A|-0-0-0-0-0-0-0-0-2-2-2-2-2-2-2-2-3-3-3-3-3-3-3-3-5-5-5-5-5-5-5-5-|
E|-0-0-0-0-0-0-0-0-0-0-0-0-0-0-0-0-0-0-0-0-0-0-0-0-0-0-0-0-0-0-0-0-|



[Interlude] (part with all the jammin solos and licks)

Guitar 1:

e|---------------------------------------|
B|---------------------------------------|
G|-----9---9-9---9---9---9-9---9-7-7-7-7-|
D|-----9---9-9---9---9---9-9---9-7-7-7-7-|
A|-7-7-7-7-7-7-7-7-7-7-7-7-7-7-7-5-5-5-5-|
E|---------------------------------------|
(Keep this playing through entire section)

Guitar 2:

e|------------------------------|
B|------------------------------|
G|-9--9-9-9-11-12-9-9h11-9h11-9-|
D|------------------------------|
A|------------------------------|
E|------------------------------|

e|----------------------------------|
B|----------------------------------|
G|-9--9-9-9-11-12-14-12-9h11-9h11-9-|
D|----------------------------------|
A|----------------------------------|
E|----------------------------------|

e|------------------------------|
B|------------------------------|
G|-9--9-9-9-11-12-9-9h11-9h11-9-|
D|------------------------------|
A|------------------------------|
E|------------------------------|

e|-----------------------------------------------------------------------------|
B|-5--5-5-5-3-------3---------------3--3---------3---------3-------------------|
G|------------4-2-----4-2----------------4-2-0-----4-2-0-----4-2-0-------------|
D|----------------2-------2-0h2-0h2------------2---------2---------2-----------|
A|--------------------------------------------------------------------2-0-0-0-2|
E|-----------------------------------------------------------------------------|

e|---------------------------------------------|
B|-3--3---------3---------3--------------------|
G|------4-2-0-----4-2-0-----4-2-0--------------|
D|------------2---------2---------2------------|
A|-----------------------------------2-0-0-0-2-|
E|---------------------------------------------|

e|---------------------------------------------------------------------|
B|-------3-----------3-----------3---------3-----------3-----------3---|
G|-2-4-2---4-2-4-2-4---4-2-4-2-4---4-2-4-2---4-2-4-2-4---4-2-4-2-4---4-|
D|---------------------------------------------------------------------|
A|---------------------------------------------------------------------|
E|---------------------------------------------------------------------|


e|-----------------------------------------------------------------------|
B|-x-5-x-5-x-5-x-5-x-5-x-5-x-5-x-5-x-5-x-5-x-5-x-5-x-5-x-5-x-5-x-5-x-5-x-|
G|-----------------------------------------------------------------------|
D|-----------------------------------------------------------------------|
A|-----------------------------------------------------------------------|
E|-----------------------------------------------------------------------|

e|-----------------------------------------------------------|
B|-3-x-2-x-3-x-5-x-3-x-2-x-3-x-5-x-3-x-2-x-3-x-5-x-3-x-2-x-3-|
G|-----------------------------------------------------------|
D|-----------------------------------------------------------|
A|-----------------------------------------------------------|
E|-----------------------------------------------------------|

e|-----------------------------------------------------------------|
B|-x-5-x-7-x-8-x-7-x-5-x-7-x-8-x-7-x-5-x-7-x-8-x-7-x-5-x-7-x-8-x-7-|
G|-----------------------------------------------------------------|
D|-----------------------------------------------------------------|
A|-----------------------------------------------------------------|
E|-----------------------------------------------------------------|

e|----------------------------------------------------------------------------|
B|---------------------------3-------------------------------3----------------|
G|-----2-4-----2-4-----2-4-----4-2-----2-4-----2-4-----2-4-----4-2-----2-4----|
D|-2-5-----2-5-----2-5-----2-------2-5-----2-5-----2-5-----2-------2-5-----2-5|
A|----------------------------------------------------------------------------|
E|----------------------------------------------------------------------------|

e|-----------------------------------------------------|
B|---------------3-------------------------------3-----|
G|-2-4-----2-4-----4-2-----2-4-----2-4-----2-4-----4-2-|
D|-----2-5-----2-------2-5-----2-5-----2-5-----2-------|
A|-----------------------------------------------------|
E|-----------------------------------------------------|

Use octave/ harmony pedal for the below riff
e|---------------------------------------------------------------------------|
B|-5----3-5/7-5-9-7h9p7-5-5h7p5-3h5p3---5----3-5/7-5-9-7h9p7-5-5h7p5-3h5p3---|
G|----4-------------------------------4----4-------------------------------4-|
D|---------------------------------------------------------------------------|
A|---------------------------------------------------------------------------|
E|---------------------------------------------------------------------------|

e|-------------------------------------------------|
B|-------------------------------------------------|
G|-9-9-9-9-9-9-9-9-9-9-9-9-9-9-9-9-9-9\8\7\6\5\4\0-|
D|-9-9-9-9-9-9-9-9-9-9-9-9-9-9-9-9-9-9\8\7\6\5\4\0-|
A|-------------------------------------------------|
E|-------------------------------------------------|
Keep playing verse riff for one more bar and end before the different power chord (577)



[Pre-Chorus]

Guitar 1:

e|---------------------------------|
B|---------------------------------|
G|-----9---9-9---9---9---9-9---9---|
D|-----9---9-9---9---9---9-9---9---|
A|-7-7-7-7-7-7-7-7-7-7-7-7-7-7-7-7-|
E|---------------------------------|

Guitar 2:

e|----------------------------------------------------------|
B|----------------------------------------------------------|
G|----------------------------------------------------------|
D|-----2-4-7-9--------2-4-7-9----9-7-4-7-4-4----9-7-4-2-----|
A|-2-5------------2-5-----------------------------------5-2-|
E|----------------------------------------------------------|
(Two bars)



[Chorus]

e|-0-0-0-0-0-0-0-0-------------------------------------------------|
B|-0-0-0-0-0-0-0-0-------------------------------------------------|
G|-2-2-2-2-2-2-2-2-4-4-4-4-4-4-4-4-5-5-5-5-5-5-5-5-7-7-7-7-7-7-7-7-|
D|-2-2-2-2-2-2-2-2-4-4-4-4-4-4-4-4-5-5-5-5-5-5-5-5-7-7-7-7-7-7-7-7-|
A|-0-0-0-0-0-0-0-0-2-2-2-2-2-2-2-2-3-3-3-3-3-3-3-3-5-5-5-5-5-5-5-5-|
E|-0-0-0-0-0-0-0-0-0-0-0-0-0-0-0-0-0-0-0-0-0-0-0-0-0-0-0-0-0-0-0-0-|


[Bridge]

Guitar 1:
e|-------------------------------|
B|-------------------------------|
G|---9---9-9---9---9---9-9---9---|
D|---9---9-9---9---9---9-9---9---|
A|-7-7-7-7-7-7-7-7-7-7-7-7-7-7-7-|
E|-------------------------------|

Guitar 2:
e|------------------------------------|
B|-17\-15\-12\-10---------------------|
G|---------------------7b---7b-7b--4b-|
D|------------------------------------|
A|------------------------------------|
E|------------------------------------|

e|-7h10-7h10-7h10-7h10-7h10-7h10-7h10-5h8-5h8-5h8-5h8-5h8-5h8-5h8-3h6-3h6-3h6-3h6-3h6-3h6-3h6-3h6-|
B|------------------------------------------------------------------------------------------------|
G|------------------------------------------------------------------------------------------------|
D|------------------------------------------------------------------------------------------------|
A|------------------------------------------------------------------------------------------------|
E|------------------------------------------------------------------------------------------------|

e|-------------------------------------------------------------------------------------------------|
B|-3h6-3h6-3h6-3h6-3h6-3h6-3h6-3h6-----------------------------------------------------------------|
G|---------------------------------5h8-5h8-5h8-5h8-5h8-5h8-5h8-5h8-3h6-3h6-3h6-3h6-3h6-3h6-3h6-3h6-|
D|-------------------------------------------------------------------------------------------------|
A|-------------------------------------------------------------------------------------------------|
E|-------------------------------------------------------------------------------------------------|


[Outro]

e|---------------------------------------------------|
B|---------------------------------------------------|
G|---------------------------------------------------|
D|---------------------------------------------------|
A|-7-7-7-7-7-7-7-7-5-5-7-7---7-7-7-7-7-7-7-7-10-10-9-|
E|---------------------------------------------------|

e|---------------------------------------------------|
B|---------------------------------------------------|
G|-------------------------------------------9-9-9-9-|
D|-------------------------------------------9-9-9-9-|
A|-7-7-7-7-7-7-7-7-5-5-7-7---7-7-7-7-7-7-7-7-7-7-7-7-|
E|---------------------------------------------------|



************************************

| \  Slide down
| b  Bend
| h  Hammer-on
| x  Dead note
| p  Pull-off
| /  Slide up

************************************
Suggest correction
Give kudos to tab author, rate the tab!
1 2 3 4 5
comments
print report bad tab
guest
You may want to rate the tab now too:
select rating
Wanna post a correction for this tab? Suggest correction