Oops, an error
Loading. Please wait.

Sense tab

version 1
version 1

Whole song

6,217 views 81 this week
2 commentsread comments
1 2 3 4 5
x 13
add to favorites
×
Save as Personal and add changes to this tab that will be seen only by you. Learn more ›
×
You can save this tab as Personal to edit and correct it or add notes. All changes will be seen only by you. Learn more »
launch autoscroll
font size
0
reset
how to read this tab
guitar tuner
edit
Autoscroll
slow
fast
+/-
esc
set tempo
stop
Sense - King Gizzard & The Lizard Wizard.

Great song from one of the best bands to come out of Melbourne. Probably not 100% accurate, 
but sounds good enough to me. Will try to add more to it later :)

If you want to sound exactly like the recording, tune your guitar down half a step. L8RZ BOYOS


Main chord progression throughout the song:

eb|--4---x--------------5--x--------------------------5---x|
Bb|--5---x--2-x---------5--x--------------------------5---x|
Gb|--6---x--2-x---------6--x---------6------4---------6---x|
Db|--6---x--2-x-------6-7--x---------6------4---------7---x|
Ab|--4---x--0-x-------6-7--x---0h2/4---4--2---------6-7---x| 
Eb|--------------0h2/4--5--x-------------------0h2/4--5---x|

('x' meaning to lightly palm mute.)

Clarinet hooks:
(0:09) & (1:07)
eb|--------4-------------------------4------4~------------------|
Bb|----5-7---7-5-----------------5-7---7-5----------------------|
Gb|--6----------6~--6p4--------6----------6---------------------|
Db|--------------------6p4~-------------------------------------|
Ab|-------------------------------------------------------------| 
Eb|-------------------------------------------------------------|


(2:14)
eb|---------------------------------------------------------|
Bb|-5/7-5-5/7~----5/7-5-5/7\5-----5/7-5-7~-5--5/77777~-5-----|
Gb|--------------------------6--------------------------6---|
Db|---------------------------------------------------------|
Ab|---------------------------------------------------------| 
Eb|---------------------------------------------------------|

            
            
Suggest correction
Creating personal tab
Creating personal tab
You can edit any tab online and save it as your Personal.

You can edit, replace or remove any tab part or add personal notes – all changes will be seen only by you.

Personal tabs can be accessed anytime from any device, even offline.
Learn more »
comments
print report bad tab
2 comments total.
0 reply
alex.lettas 10 May 15, 2016 02:51 AM

This sux haha just kidding

0 reply
alex.lettas 10 May 15, 2016 02:52 AM

Great tab 5 stars comrade !!! ^.^

guest
You may want to rate the tab now too:
select rating
Wanna post a correction for this tab? Suggest correction