Oops, an error
Loading. Please wait.

Sense tab

version 2
version 2

Whole song

2,618 views 66 this week
no commentswrite comment
1 2 3 4 5
x 4
add to favorites
×
Save as Personal and add changes to this tab that will be seen only by you. Learn more ›
×
You can save this tab as Personal to edit and correct it or add notes. All changes will be seen only by you. Learn more »
launch autoscroll
font size
0
reset
how to read this tab
guitar tuner
edit
Autoscroll
slow
fast
+/-
esc
set tempo
stop
There didn't seem to be any adequate tabs or chords of this brilliant song so I quickly tabbed this out.
First tab ever so hopefully it's not too bad!
Tuned a half-step down on all strings.


INTRO/VERSE:

      C#m  F#m         G#m  F#m               C#m      F#m         G#m  F#m
d#|-----------------------------------|--------------------------------------|
A#|-----5---2-----------4---2---------|---------5--------2-----------4---2---|
F#|-----6---2-----------4---2---------|---------6--------2-----------4---2---|
C#|-----6---2-----------6---4---------|---------6--------4-----------6---4---|
G#|-----4-----------------------------|------4-------------------------------|
D#|--------------0-2-4------2---------|--4-7-------4-2--------0-2-4------2---|

          ^It's in vogue..                      ^When it comes..

BRIDGE:
  
        E    A         B    A                 E    A         B    A         
d#|-----------------------------------|--------------------------------------|
A#|-----9----5---------7----5---------|-------9----5---------7----5----------|
F#|-----9----6---------8----6---------|-------9----6---------8----6----------|
C#|-----9----7---------9----7---------|-------9----7---------9----7----------|
G#|-----7-----------------------------|---5-6-7------------------------------|
D#|----------5-----5-6-7----5---------|-------7----5-----5-6-7----5----------|

          ^But in fact..                        ^Everything I hear..


CHORUS: (Same as verse)

C#m  F#m   G#m  F#m   



CLARINET RIFF:

d#|-------4-7-------------------------|--------4-7--------------------------|
A#|-----5-----4-5---------------------|------5-----4-5---------9------------|
F#|---6-----------6-----6-4-----------|----6-----------6--------------------|
C#|---------------------------6-4-----|-------------------------------------|
G#|-----------------------------------|-------------------------------------|
D#|-----------------------------------|-------------------------------------|



STRUCTURE/LYRICS:

Intro

Verse x3
  (Clarinet Riff)
  It's in vogue, to be feckless. When it comes to the mother taking care of us.
  I know it's so conventional, but it don't make no sense at all. 

Bridge x2
   But in fact, it's a pattern. Everything I hear will always make me ashen.
   I know it's recognizable, but it don't make no sense at all, oh

Chorus x4 (Verse x2)
   Ooooooh, no no no sense at all
   (Clarinet riff)

Verse x2
   People pay for their coupe, but they can't pay their taxes for the freeway
   I know it's so predictable, but it don't make no sense at all, and

Bridge x2
   Some people say, it's on their radar, but they drive a million miles in their fast car
   I know it's so invisible, but it don't make no sense at all

Chorus x8 (Verse x4)
   Oooooh, no no no sense at all
   Oooooh, no no no sense at all
   (Clarinet Instrumental)
   (Clarinet Instrumental)

Bridge x2
   But in fact, it's a pattern. Everything I hear will always make me ashen.
   I know it's recognizable, but it don't make no sense at all.

Chorus x8 (Verse x4)
   Ooooh, no no no sense at all
   Ooooh, no no no sense at all
   Ooooh, no no no sense at all
   Ooooh, no no no sense at all








            
            
Suggest correction
Creating personal tab
Creating personal tab
You can edit any tab online and save it as your Personal.

You can edit, replace or remove any tab part or add personal notes – all changes will be seen only by you.

Personal tabs can be accessed anytime from any device, even offline.
Learn more »
comments
print report bad tab
guest
You may want to rate the tab now too:
select rating
Wanna post a correction for this tab? Suggest correction