Oops, an error
Loading. Please wait.

Sleep Drifter tab

3,310 views 66 this week
4 commentsread comments
1 2 3 4 5
x 9
add to favorites
×
Save as Personal and add changes to this tab that will be seen only by you. Learn more ›
×
You can save this tab as Personal to edit and correct it or add notes. All changes will be seen only by you. Learn more »
launch autoscroll
font size
0
reset
how to read this tab
guitar tuner
edit
Autoscroll
slow
fast
+/-
esc
set tempo
stop
Author
Difficulty
RESPECT TO THIS GUY:
https://www.youtube.com/watch?v=lJ-niVRc_T0
Jonn Cactus, big thanks to you.
He made this happen.

Obviously a microtonal flying banana, or just a microtonal guitar, would be the best option to play this on.
You will need to tweek the tabs a bit yourself if you are playing on a microtonal guitar.

-------------------------------------------------------------------------------
                King Gizzard And The Lizard Wizard - Sleep Drifter
-------------------------------------------------------------------------------
Tabbed by: Mads Wadum Larsen
E-mail: madswadum@gmail.com

[Intro]
e|---------------------------|---------------------------|---------------------------|
B|---------------------------|---------------------------|----------------0----------|
G|-18--18--16--16--14--14--13|-13--11--11---9--9---8--8--|6---6--4--4---2---1--------|
D|---------------------------|---------------------------|------------------------4~-|
A|---------------------------|---------------------------|---------------------------|
E|---------------------------|---------------------------|---------------------------|

[Intro Riff]
e|---------------------------|---------------------------|---------------------------|
B|---------------------------|--------------10-----------|---------------------------|
G|-11--9--11--11---8----6~---|--11--9--11-------8s9--6~--|---------------------------|
D|---------------------------|---------------------------|-----------4~--------------|
A|---------------------------|---------------------------|----4h5h7------------------|
E|---------------------------|---------------------------|---------------------------|

e|---------------------------|---------------------------|---------------------------|
B|---------------------------|---------------------------|--------------10-----------|
G|-11--9--11--11---8s9--6~---|---------------------------|--11--9--11-------8s9--6~--|
D|---------------------------|---------------------------|---------------------------|
A|---------------------------|---------------------------|---------------------------|
E|---------------------------|---2h4h5-2~----------------|---------------------------|

e|---------------------------|---------------------------|---------------------------|
B|---------------------------|---------------------------|---------------------------|
G|-6s4-4---4---4---4---4-----|---------------------------|---------------------------|
D|---------------------------|---1--2--4~---6--7--9h11---|--4--6--7--7--6h7---4--4-4-|
A|---------------------------|---------------------------|---------------------------|
E|------0---0---0---0---0----|---------------------------|---------------------------|

e|---------------------------|---------------------------|---------------------------|
B|---------------------------|---------------------------|---------------------------|
G|-----------6---------------|---------------------------|-----------6---------------|
D|--4--6--7-----6---6--4~----|-----------4~--------------|--4--6--7-----6---6--4~----|
A|---------------------------|----4h5h7------------------|---------------------------|
E|---------------------------|---------------------------|---------------------------|

e|---------------------------|---------------------------|---------------------------|
B|---------------------------|---------------------------|---------------------------| 
G|---------------------------|-----------4---------------|-11--9--11--11---8s9--6~---|
D|---------------------------|--4--6--7-----6---6--4~----|---------------------------|
A|---------------------------|---------------------------|---------------------------|
E|---2h4h5-2~----------------|---------------------------|---------------------------|

e|---------------------------|---------------------------|---------------------------|
B|--------------10-----------|---------------------------|---------------------------| 
G|--11--9--11-------8s9--6~--|---------------------------|-11--9--11--11---8s9--6~---|
D|---------------------------|-----------4~--------------|---------------------------|
A|---------------------------|----4h5h7------------------|---------------------------|
E|---------------------------|---------------------------|---------------------------|

e|---------------------------|---------------------------|---------------------------|
B|---------------------------|--------------10-----------|---------------------------| 
G|---------------------------|--11--9--11-------8s9--6~--|-6s4-4---4---4---4---4-----|
D|---------------------------|---------------------------|---------------------------|
A|---------------------------|---------------------------|---------------------------|
E|---2h4h5-2~----------------|---------------------------|------0---0---0---0---0----|

e|---------------------------|
B|---------------------------|
G|---------------------------|
D|---1--2--4~---6--7--9h11---|
A|---------------------------|
E|---------------------------|

[Main Riff] (I guess ...)
e|---------------------------|---------------------------|---------------------------|
B|---------------------------|---------------------------|---------------------------|
G|---------------------------|---------------------------|-----------6---------------|
D|--4--6--7--7--6--6--4------|-----------4~--------------|--4--6--7-----6---6--4~----|
A|---------------------------|----4h5h7------------------|---------------------------|
E|---------------------------|---------------------------|---------------------------|

e|---------------------------|---------------------------|---------------------------|
B|---------------------------|---------------------------|---------------------------|
G|---------------------------|---------------------------|---------------------------|
D|-----------4~--------------|--4--6--7--7--6--6--4------|---------------------------|
A|----4h5h7------------------|---------------------------|---------------------------|
E|---------------------------|---------------------------|---2h4h5-2~----------------|

e|---------------------------|
B|---------------------------|
G|-----------4~--------------|
D|--4--6--7-----6---6--4~----|
A|---------------------------|
E|---------------------------|

[Break]
e|---------------------------|---------------------------|---------------------------|
B|---------------------------|---------------------------|---------------------------|
G|-14h16--16--16--16s18--18~-|--------12h13--13--12------|--11--9--11~---------------|
D|---------------------------|---------------------------|---------------------------|
A|---------------------------|---------------------------|---------------------------|
E|---------------------------|---------------------------|---------------------------|

e|---------------------------|---------------------------|---------------------------|
B|---------------------------|---------------------------|---------------------------|
G|--------12h13--13--12------|--11--9--11~---------------|--------12h13--13--12------|
D|---------------------------|---------------------------|---------------------------|
A|---------------------------|---------------------------|---------------------------|
E|---------------------------|---------------------------|---------------------------|

e|---------------------------|---------------------------|---------------------------|
B|---------------------------|---------------------------|---------------------------|
G|--11-s9--11~-----11----9---|--9s6--4~------------------|------8--9--11--13--14--16-|
D|---------------------------|---------------------------|---------------------------|
A|---------------------------|---------------------------|---------------------------|
E|---------------------------|---------------------------|---------------------------|

[Instrumental]
e|---------------------------|---------------------------|---------------------------|
B|---------------------------|---------------------------|----------------0----------|
G|-18--18--16--16--14--14--13|-13--11--11---9--9---8--8--|6---6--4--4---2---1--------|
D|---------------------------|---------------------------|------------------------4~-|
A|---------------------------|---------------------------|---------------------------|
E|---------------------------|---------------------------|---------------------------|

e|---------------------------|---------------------------|---------------------------|
B|---------------------------|--------------10-----------|---------------------------|
G|-11--9--11--11---8----6~---|--11--9--11-------8s9--6~--|---------------------------|
D|---------------------------|---------------------------|-----------4~--------------|
A|---------------------------|---------------------------|----4h5h7------------------|
E|---------------------------|---------------------------|---------------------------|

e|---------------------------|---------------------------|---------------------------|
B|---------------------------|---------------------------|--------------10-----------|
G|-11--9--11--11---8s9--6~---|---------------------------|--11--9--11-------8s9--6~--|
D|---------------------------|---------------------------|---------------------------|
A|---------------------------|----------4~---------------|---------------------------|
E|---------------------------|---2h4h5-2~----------------|---------------------------|

e|---------------------------|---------------------------|
B|---------------------------|---------------------------|
G|--6s4----4---4---4---4-----|---------------------------|
D|---------------------------|---1--2--4~---6--7--9h11---|
A|---------------------------|---------------------------|
E|------0---0---0---0---0----|---------------------------|

[Main Riff] (I guess ...)
e|---------------------------|---------------------------|---------------------------|
B|---------------------------|---------------------------|---------------------------|
G|---------------------------|----------4s6--------------|---------------------------|
D|--4--6--7--7--6--6--4------|--4--6--7-----6---6--4~----|-----------4~--------------|
A|---------------------------|---------------------------|----4h5h7------------------|
E|---------------------------|---------------------------|---------------------------|

e|---------------------------|---------------------------|---------------------------|
B|---------------------------|---------------------------|---------------------------|
G|---------------------------|---------------------------|-----------4~--------------|
D|--4--6--7--7--6--6--4------|---------------------------|--4--6--7-----6---6--4~----|
A|---------------------------|---------------------------|---------------------------|
E|---------------------------|---2h4h5-2~----------------|---------------------------|

e|---------------------------|---------------------------|---------------------------|
B|---------------------------|---------------------------|---------------------------|
G|---------------------------|---------------------------|----------4s6--------------|
D|--4--6--7--7--6--6--4------|-----------4~--------------|--4--6--7-----6---6--4~----|
A|---------------------------|----4h5h7------------------|---------------------------|
E|---------------------------|---------------------------|---------------------------|

e|---------------------------|---------------------------|---------------------------|
B|---------------------------|---------------------------|---------------------------|
G|---------------------------|---------------------------|---------------------------|
D|-----------4~--------------|--4--6--7--7--6--6--4------|---------------------------|
A|----4h5h7------------------|---------------------------|---------------------------|
E|---------------------------|---------------------------|---2h4h5-2~----------------|

e|---------------------------|---------------------------|---------------------------|
B|---------------------------|---------------------------|---------------------------|
G|-----------4~--------------|---------------------------|----------4s6--------------|
D|--4--6--7-----6---6--4~----|--4--6--7--7--6--6--4------|--4--6--7-----6---6--4~----|
A|---------------------------|---------------------------|---------------------------|
E|---------------------------|---------------------------|---------------------------|

e|---------------------------|---------------------------|---------------------------|
B|---------------------------|---------------------------|---------------------------|
G|-----------4~--------------|---------------------------|---------------------------|
D|----4h5h7------------------|--4--6--7--7--6--6--4------|---------------------------|
A|---------------------------|---------------------------|---------------------------|
E|---------------------------|---------------------------|---2h4h5-2~----------------|

e|---------------------------|
B|---------------------------|
G|-----------4~--------------|
D|--4--6--7-----6---6---4~---|
A|----------------------4~---|
E|----------------------2~---|

[Second part]
kinda weird to tap  the first part burt sort of like this.
I just mute the string with my left hand, releasing the 4th fret.
e|---------------------------|---------------------------|---------------------------|
B|---------------------------|---------------------------|---------------------------|
G|---------------------------|---------------------------|---------------------------|
D|-4x0--4x0--4x0--4x0--4x0---|2h4-4x0--4x0--4x0--4x0--4x0|-4x0--4x0--4x0--4x0--4x0---|
A|---------------------------|---------------------------|---------------------------|
E|---------------------------|---------------------------|---------------------------|

e|---------------------------|---------------------------|---------------------------|
B|---------------------------|---------------------------|---------------------------|
G|---------------------------|---------------------------|---------------------------|
D|2h4-4x0--4x0--4x0--4x0--4x0|-4x0--4x0--4x0--4x0--4x0---|---1--2--4----6--7--9h11~~-|
A|---------------------------|---------------------------|---------------------------|
E|---------------------------|---------------------------|---------------------------|

e|---------------------------|---------------------------|---------------------------|
B|---------------------------|---------------------------|---------------------------|
G|---------------------------|---------------------------|---------------------------|
D|---1--2--4----6--7--9h11~~-|---1--2--4----6--7--9h11~~-|---1--2--4----6--7--9h11~~-|
A|---------------------------|---------------------------|---------------------------|
E|---------------------------|---------------------------|---------------------------|

(neck bend here)
e|-0~~~----------------------|---------------------------|---------------------------|
B|-0~~~----------------------|---------------------------|---------------------------|
G|-0~~~----------------------|---------------------------|---------------------------|
D|-0~~~----------------------|-------4--------4-------4--|--------4s6--6--6--4-------|
A|-0~~~----------------------|---------------------------|---------------------------|
E|-0~~~----------------------|-x2-x2----x2-x2----x2-x2---|-x2-x2---------------------|

e|---------------------------|---------------------------|---------------------------|
B|---------------------------|---------------------------|---------------------------|
G|---------------------------|---------------------------|---------------------------|
D|-------4--------4-------4--|--------4s6--6--6--4-------|-------4--------4-------4--|
A|---------------------------|---------------------------|---------------------------|
E|-x2-x2----x2-x2----x2-x2---|-x2-x2---------------------|-x2-x2----x2-x2----x2-x2---|

e|---------------------------|---------------------------|---------------------------|
B|---------------------------|---------------------^0~---|---------------------------|
G|---------------------------|---------------------^0~---|---------------------------|
D|--------4s6--6--6--4-------|-------4--------4----^0~---|---------------------------|
A|---------------------------|---------------------^0~---|---------------------------|
E|-x2-x2---------------------|-x2-x2----x2-x2------^0~---|--15\\\\\4-----------------|

e|---------------------------|---------------------------|---------------------------|
B|---------------------------|---------------------------|---------------------------|
G|---------------------------|---------------------------|---------------------------|
D|--4--6--7--7--6--6--4------|-----------4~--------------|-------4--------4-------4--|
A|---------------------------|----4h5h7------------------|---------------------------|
E|---------------------------|---------------------------|-x2-x2----x2-x2----x2-x2---|

e|---------------------------|---------------------------|---------------------------|
B|---------------------------|---------------------------|---------------------------|
G|---------------------------|---------------------------|---------------------------|
D|--------4s6--6--6--4-------|----------4---------------4|-------4--------4-------4--|
A|---------------------------|-4--6--7-----6--6--4---7---|---------------------------|
E|-x2-x2---------------------|---------------------------|-x2-x2----x2-x2----x2-x2---|

e|---------------------------|---------------------------|---------------------------|
B|---------------------------|---------------------------|---------------------------|
G|---------------------------|---------------------------|---------------------------|
D|--------4s6--6--6--4-------|--4--6--7--7--6--6--4------|-----------4~--------------|
A|---------------------------|---------------------------|----4h5h7------------------|
E|-x2-x2---------------------|---------------------------|---------------------------|

e|---------------------------|---------------------------|---------------------------|
B|---------------------------|---------------------------|---------------------------|
G|---------------------------|---------------------------|---------------------------|
D|-------4--------4-------4--|--------4s6--6--6--4-------|----------4----------6--4--|
A|---------------------------|---------------------------|-4--6--7-----6--6--4-------|
E|-x2-x2----x2-x2----x2-x2---|-x2-x2---------------------|---------------------------|

e|---------------------------|---------------------------|---------------------------|
B|---------------------^0~---|---------------------------|---------------------------|
G|---------------------^0~---|---------------------------|---------------------------|
D|-------4--------4----^0~---|---------------------------|-------4--------4-------4--|
A|---------------------^0~---|---------------------------|---------------------------|
E|-x2-x2----x2-x2------^0~---|--15\\\\\4-----------------|-x2-x2----x2-x2----x2-x2---|

e|---------------------------|---------------------------|---------------------------|
B|---------------------------|---------------------------|---------------------------|
G|---------------------------|---------------------------|---------------------------|
D|--------4s6--6--6--4-------|-------4--------4-------4--|--------4s6--6--6--4-------|
A|---------------------------|---------------------------|---------------------------|
E|-x2-x2---------------------|-x2-x2----x2-x2----x2-x2---|-x2-x2---------------------|

e|---------------------------|---------------------------|---------------------------|
B|---------------------------|---------------------------|---------------------^0~---|
G|---------------------------|-------------------6-------|---------------------^0~---|
D|-------4--------4-------4--|--------4s6--6--6----------|-------4--------4----^0~---|
A|---------------------------|---------------------------|---------------------^0~---|
E|-x2-x2----x2-x2----x2-x2---|-x2-x2---------------------|-x2-x2----x2-x2------^0~---|

e|---------------------------|---------------------------|---------------------------|
B|---------------------------|---------------------------|---------------------------|
G|---------------------------|---------------------------|---------------------------|
D|---------------------------|---------------------------|----------7----------------|
A|---------------------------|-9--7--9--9----6---4~------|-9--7--9-------6---4~------|
E|--15\\\\\4-----------------|---------------------------|---------------------------|

e|---------------------------|------------------0~~~-----|---------------------------|
B|---------------------------|------------------0~~~-----|---------------------------|
G|---------------------------|------------------0~~~-----|-11--13--14--14---13---11--|
D|---------------------------|----------7-------0~~~-----|---------------------------|
A|-9--7--9--9----6---4~------|-9--7--9----------0~~~-----|---------------------------|
E|---------------------------|------------------0~~~-----|---------------------------|

e|---------------------------|---------------------------|----------------------------------|
B|---------------------------|---------------------------|----------------------------------|
G|-11--13-h14--14---13---11--|-11--13--14--16--13h14-11--|11--9--11-11--9--6--4~----11-9-11-|
D|---------------------------|---------------------------|----------------------------------|
A|---------------------------|---------------------------|----------------------------------|
E|---------------------------|---------------------------|----------------------------------|



************************************

| ~  Vibrato
| h  Hammer-on
| x  Dead note
| \  Slide down
| ^  
| s  

************************************

            
            
Suggest correction
Creating personal tab
Creating personal tab
You can edit any tab online and save it as your Personal.

You can edit, replace or remove any tab part or add personal notes – all changes will be seen only by you.

Personal tabs can be accessed anytime from any device, even offline.
Learn more »
comments
print report bad tab
4 comments total. Showing first comments.
+2 reply
dtom_ 16 Mar 17, 2017 09:13 PM

Here thanks to r/KGATLW

+2 reply
mepage2000 66 Mar 27, 2017 08:10 PM

I'm surprised this actually sounds nice on a non-microtonal guitar.

guest
You may want to rate the tab now too:
select rating
Wanna post a correction for this tab? Suggest correction