Oops, an error
Loading. Please wait.
22,324 views 279 this week
15 commentsread comments
1 2 3 4 5
x 34
add to favorites
×
Save as Personal and add changes to this tab that will be seen only by you. Learn more ›
×
You can save this tab as Personal to edit and correct it or add notes. All changes will be seen only by you. Learn more »
launch autoscroll
font size
0
reset
how to read this tab
guitar tuner
edit
Autoscroll
slow
fast
+/-
esc
set tempo
stop
Author
Difficulty
intermediate
Rhythm guitar:
e|------------------|
B|------------------|
G|-----7-7---7-7----|  X loads
D|-----7-7---6 6----| 
A|------------------| 
E|---7-----7--------| 

Lead Guitar:
e|----------------------------7-------------------------| 
B|--------------------------7-------9h10p9----9--7~-----| 
G|---------------6~---6-7-9---------------9-------------| X2
D|--------6-7-9-----------------------------------------| 
A|---9--------------------------------------------------| 
E|------------------------------------------------------| 

e|------------------------------|
B|------------------------------|
G|---4--------------------------| X3
D|-----4---7-6 ----7~-6-4----4--|
A|-------------7----------7-----|
E|------------------------------|

e|---------------------------------------------------------------------------|
B|----------------------------------9b---------------------------------------|
G|--4-------------------------------9b---------------------------------------|
D|----4---7-6-----7~-6-4----4~---------------------------9-7-----------------|
A|------------7----------7------------------7-9--------------7---------------|
E|------------------------------7~---------------7~--------------------------|

e|--------------------------------------|
B|----------9b--------------------------|
G|----------9b--------------------------|
D|--------------------------------------|
A|--7-9-------------------7-9-----------|
E|-------7~--------------------7~-------|

e|------------------------------------------------------------------|
B|------------------------------------------------------------------|
G|------------------------------------------------------------------| X2
D|-------------------------------------------------------9p7-9p7----|
A|---7-9----9-7---7------9-------11----9--7---7-------------------9-|
E|-------7~-----9----10~---10s12----10-----9----7~------------------|

Each guitar reverts back to the rhythm riff 
Repeat but with some general 'jam' style variation



************************************

| h  Hammer-on
| p  Pull-off
| b  Bend
| ~  Vibrato
| s  Slide

************************************

            
            
Suggest correction
Creating personal tab
Creating personal tab
You can edit any tab online and save it as your Personal.

You can edit, replace or remove any tab part or add personal notes – all changes will be seen only by you.

Personal tabs can be accessed anytime from any device, even offline.
Learn more »
comments
print report bad tab
15 comments total. Showing first comments.
0 reply
DIN0070 31 Feb 12, 2016 05:58 AM

Does anyone has an idea on what scale are jamming?

+1 reply
bunii 269 Feb 13, 2016 05:41 PM

awesome tab, but it's worth noting that this song is in 5/4, true jazz style. thanks for posting!

0 reply
Brandonluco 10 Feb 17, 2016 07:20 AM

Appreciate the tab.

guest
You may want to rate the tab now too:
select rating
Wanna post a correction for this tab? Suggest correction