Oops, an error
Loading. Please wait.

Vomit Coffin tab

version 1
version 1

Whole song

  • As per the usual of King Gizzard, The timing is qu... Show more

Interactive

751 views 27 this week
3 commentsread comments
1 2 3 4 5
x 3
add to favorites
×
Save as Personal and add changes to this tab that will be seen only by you. Learn more ›
×
You can save this tab as Personal to edit and correct it or add notes. All changes will be seen only by you. Learn more »
launch autoscroll
font size
0
reset
how to read this tab
guitar tuner
edit
Autoscroll
slow
fast
+/-
esc
set tempo
stop
About this tab version
As per the usual of King Gizzard, The timing is quite different, you'll just have to go by ear for it. Was this info helpful? Yes No
VOMIT COFFIN - King Gizzard The Lizard Wizard
Tabbed by: MVReed
Tuning: Standard

[Riff 1]
   "Vomit Coffin..."
e|---------------------------------|
B|---------------------------------|
G|---------------------------------| X 4
D|---------------------------------|
A|-10-10-7-7-----------------------|
E|-8--8--5-5-5-5-5-5-5-5-5-5-5-5---|
PM           . . . . . . . . . .

[Riff 2]
    "I don't... Feel Blessed..."
e|---------------------------------|
B|---------------------------------|
G|---------------------------------| X 2
D|---------------------------------|
A|-10-8-----10-7-------------------|
E|-8--6-0-0-8--5-0-0---------------|
PM      . .      . .

e|--------------------------------------|
B|--------------------------------------|
G|--------------------------------------|
D|--------------------------------------|
A|-10-8-----10-3-3-3-3-3-3-3-3-3-3-3-3-3|
E|-8--6-0-0-8--1-1-1-1-1-1-1-1-1-1-1-1-1|
PM      . .      . . . . . . . . . . . .

[Riff 1]
   "Vomit Coffin..."
e|---------------------------------|
B|---------------------------------|
G|---------------------------------| X 4
D|---------------------------------|
A|-10-10-7-7-----------------------|
E|-8--8--5-5-5-5-5-5-5-5-5-5-5-5---|
PM           . . . . . . . . . .

[Riff 3]
   "Queasy Green..."
e|---------------------------------|
B|---------------------------------|
G|---------------------------------|
D|-9-9-9-9-10-10-10-10---5--3------|
A|-7-7-7-7-8--8--8--8----3--1--3---|
E|-----------------------------1---|
PM

e|---------------------------------|
B|---------------------------------|
G|---------------------------------|
D|---------------------------------|
A|-3-3-3-3-3-3-3-3-3-3-3-3---------|
E|-1-1-1-1-1-1-1-1-1-1-1-1---------|
PM . . . . . . . . . . . .

["Vomit Bomb"]
e|----------------|
B|----------------|
G|----------------|
D|----------------|
A|-10-10-7--------|
E|-8--8--5--------|
PM

[Riff 4]         
This is where Han-Tyumi comes in.
e|---------------------------------|
B|----------------------6----------|                  
G|---------------------------------| X 3
D|--7---5-7---8-7---7-8------------|
A|---------------------------------|
E|---------------------------------|

e|---------------------------------|
B|---------------------------------|
G|---------------------------------| 
D|--7---5-7---8-7------------------|
A|---------------------------------|
E|---------------------------------|

[Riff 5]
e|-------------5-5--5-5-5h6p5-5----------------------5-5--5-5-5h6p5-5/13-13\--/13-13\-------|
B|---------5-6-----------------------------------5-6----------------------------------------|                  
G|-----5-6-----------------------------------5-6--------------------------------------------| 
D|-6-8-----------------------------------6-8------------------------------------------------|
A|------------------------------------------------------------------------------------------|
E|------------------------------------------------------------------------------------------|

e|-5-------------------------------|
B|---5-----6-----------------------|
G|-----5-6-------------------------| 
D|---------------------------------|
A|---------------------------------|
E|---------------------------------|

[Riff 4]         
e|---------------------------------|
B|----------------------6----------|                  
G|---------------------------------| X 3
D|--7---5-7---8-7---7-8------------|
A|---------------------------------|
E|---------------------------------|

e|---------------------------------|
B|---------------------------------|
G|---------------------------------| 
D|--7---5-7---8-7------------------|
A|---------------------------------|
E|---------------------------------|

[Riff 6]
e|---------------------------------------------------------------------------------|
B|---------------------------------------------------------------------------------|
G|---------------------------------------------------------------------------------| 
D|----------------------------------------------------7-8-10-10/11-10-8-8h10p8-7---|
A|---------------------------------------------------------------------------------|
E|-5-6-8-8/9-8-6-6h8p6-5----5-6-8-8/9-8-6-6h8p6--5---------------------------------|

[Riff 2]
    "I don't... Feel Blessed..."
e|---------------------------------|
B|---------------------------------|
G|---------------------------------| X 2
D|---------------------------------|
A|-10-8-----10-7-------------------|
E|-8--6-0-0-8--5-0-0---------------|
PM      . .      . .

e|--------------------------------------|
B|--------------------------------------|
G|--------------------------------------|
D|--------------------------------------|
A|-10-8-----10-3-3-3-3-3-3-3-3-3-3-3-3-3|
E|-8--6-0-0-8--1-1-1-1-1-1-1-1-1-1-1-1-1|
PM      . .      . . . . . . . . . . . .

[Riff 1]
   "Vomit Coffin..."
e|---------------------------------|
B|---------------------------------|
G|---------------------------------| X 4
D|---------------------------------|
A|-10-10-7-7-----------------------|
E|-8--8--5-5-5-5-5-5-5-5-5-5-5-5---|
PM           . . . . . . . . . .

[Riff 3]
   "Queasy Green..."
e|---------------------------------|
B|---------------------------------|
G|---------------------------------|
D|-9-9-9-9-10-10-10-10---5--3------|
A|-7-7-7-7-8--8--8--8----3--1--3---|
E|-----------------------------1---|
PM

e|---------------------------------|
B|---------------------------------|
G|---------------------------------|
D|---------------------------------|
A|-3-3-3-3-3-3-3-3-3-3-3-3---------|
E|-1-1-1-1-1-1-1-1-1-1-1-1---------|
PM . . . . . . . . . . . .

   "Vomit Vomit Vomit Vomit..."
e|-----------------------------------------------------|
B|-----------------------------------------------------|
G|-----------------------------------------------------|
D|-----------------------------------------------------|
A|-10-10-10-10-10-10-10-10-10-10-10-10-10-10-10-10-7---|
E|-8--8--8--8--8--8--8--8--8--8--8--8--8--8--8--8--5---|

*********************

| /  slide up
| \  slide down
| h  hammer-on
| p  pull-off

*********************

            
            
Suggest correction
Creating personal tab
Creating personal tab
You can edit any tab online and save it as your Personal.

You can edit, replace or remove any tab part or add personal notes – all changes will be seen only by you.

Personal tabs can be accessed anytime from any device, even offline.
Learn more »
Give kudos to tab author, rate the tab!
1 2 3 4 5
comments
print report bad tab
3 comments total.
0 reply
mepage2000 66 Jun 09, 2017 05:36 PM

Probably the most fun King Gizz song to play

0 reply
mr.timn15 10 Aug 25, 2017 06:00 AM

Core is down very good

guest
You may want to rate the tab now too:
select rating
Wanna post a correction for this tab? Suggest correction