Oops, an error
Loading. Please wait.
1,513 views 39 this week
no commentswrite comment
1 2 3 4 5
x 5
add to favorites
×
Save as Personal and add changes to this tab that will be seen only by you. Learn more ›
×
You can save this tab as Personal to edit and correct it or add notes. All changes will be seen only by you. Learn more »
launch autoscroll
font size
0
reset
how to read this tab
guitar tuner
edit
Autoscroll
slow
fast
+/-
esc
set tempo
stop
Author
Difficulty
About this tab version
Done mostly by ear, with help from bass cover video on youtube. Was this info helpful? Yes No
King Gizzard and the Lizard Wizard

Wah Wah

5/4

Chorus Riff "Wah wah wah wah…"
   1   2   3   4   5   1   2   3   4   5   1   2   3   4   5   1   2   3   4   5   
E|---------------------------------------------------------------------------------|
B|---------------------------------------------------------------------------------|
G|---------------------------------------------------------------------------------|
D|-----------------------------------------9-----7-----6-------9-----7-----6-------|
A|-------------7---9---------------7---9-------------------9-------------------9---|
E|-7-----10------------7-----10----------------------------------------------------|

Riff 1 cont.
   1   2   3   4   5   1   2   3   4   5   1   2   3   4   5   1   2   3   4   5   
E|---------------------------------------------------------------------------------|
B|---------------------------------------------------------------------------------|
G|---------------------------------------------------------------------------------|
D|-----------------------------------------9-----7-----6-------9-------------------|
A|-------------7---9---------------7---9-------------------9-----------------------|
E|-7-----10------------7-----10----------------------------------------------------|



Bridge Riff
   1   2   3   4   5   1   2   3   4   5   1   2   3   4   5   1   2   3   4   5   
E|---------------------------------------------------------------------------------|
B|---------------------------------------------------------------------------------|
G|-16----14------------16----13------------16----12------------11------------------|
D|---------------------------------------------------------------------------------|
A|---------------------------------------------------------------------------------|
E|---------------------------------------------------------------------------------|



Verse Riff "I can feel the earth is moving…"
   1   2   3   4   5   1   2   3   4   5     
E|-----------------------------------------|
B|-----------------------------------------|
G|-----------------9---11----9-------------|
D|-9-----11----12------------------12--11--|
A|-----------------------------------------|
E|-----------------------------------------| x2

Verse riff cont. "Fire protrudes from whence I'm pointing…"
   1   2   3   4   5   1   2   3   4   5   1   2   3   4   5   1   2   3   4   5   
E|---------------------------------------------------------------------------------|
B|---------------------------------------------------------------------------------|
G|---------------------------------------------------------------------------------|
D|-12----11----9-------11----9-------------11----9-------------9-------------------|
A|-----------------12--------------12--11--------------12--11----------------------|
E|---------------------------------------------------------------------------------|



Alt. Verse Riff "I'm the chieftain of your feelings…"
   1   2   3   4   5   1   2   3   4   5     
E|-----------------------------------------|
B|-----------------5---7-----5-------------|
G|-4-----6-----7-------------------7---6---|
D|-----0-----0---0---0-----0-----0---0---0-|
A|-----------------------------------------|
E|-----------------------------------------| x2

Alt. Verse Riff cont. "You can not escape my dealing…"
   1   2   3   4   5   1   2   3   4   5   1   2   3   4   5   1   2   3   4   5   
E|---------------------------------------------------------------------------------|
B|---------------------------------------------------------------------------------|
G|-7-----6-----4---2---6-----4-----2---1---6-----4-----2---1---4-------------------|
D|-----0-----0---0---0-----0-----0---0---0-----0-----0---0---0---------------------|
A|---------------------------------------------------------------------------------|
E|---------------------------------------------------------------------------------|

FULL SONG STRUCTURE:
Chorus
Feeback
Bridge
Verse x2
Feedback
Chorus
Verse x2
Feedback
Chorus
Bridge x2
Alt. Verse
Feedback

            
            
Suggest correction
Creating personal tab
Creating personal tab
You can edit any tab online and save it as your Personal.

You can edit, replace or remove any tab part or add personal notes – all changes will be seen only by you.

Personal tabs can be accessed anytime from any device, even offline.
Learn more »
comments
print report bad tab
guest
You may want to rate the tab now too:
select rating
Wanna post a correction for this tab? Suggest correction