Oops, an error
Loading. Please wait.

Work This Time chords

2,377 views 66 this week
4 commentsread comments
1 2 3 4 5
x 7
add to favorites
×
Save as Personal and add changes to this tab that will be seen only by you. Learn more ›
×
You can save this tab as Personal to edit and correct it or add notes. All changes will be seen only by you. Learn more »
launch autoscroll
font size
0
reset
transpose
0
reset
display chords
guitar tuner
edit
Autoscroll
slow
fast
+/-
esc
set tempo
stop
Strumming
There is no strumming pattern for this song yet. and get +5 IQ
[Intro]
  F#m G#m A B
  F#m G#m A B
  F#m G#m A B
  F#m G#m A B

[Intro Riff}
e|-----------------------------------------------------------------|
B|-9-7---7-------------9-----------9-7---7-------------------------|
G|-----9---8-9-8-6-8s9---9-8s6---------9---8-9-8-6-8s9-8---6-------|
D|-----------------------------9-------------------------9---7s6---|
A|---------------------------------------------------------------9-|
E|-----------------------------------------------------------------|

[Verse]
 F#m         G#m     A               B         F#m G#m A B
I knock hello but I see that you've got hypothermia
F#m           G#m               A               B        F#m      G#m A B
So I place a block to stop the rot and hope that I can warm you up
 F#m    B      C#m       B                  F#m B C#m B
Do I have to shake you babe until you're blind?
       F#m       B         C#m           B            F#m B C#m B
Cause every light bulbs' blown and I'm feeling so inclined

[Chorus]
A                     F#m
Can never lay my whole head down
 A                     F#m
Can never lay my whole head down
 A                     F#m
Can never lay my whole head down
 A                   E                        B
I know I'm lazy but baby I will work this time

  F#m G#m A B
  F#m G#m A B
  F#m G#m A B
  F#m G#m A B

[Verse]
F#m           G#m           A        B        F#m     G#m A B
It's kind of funny that I live the poetry I can not write
F#m          G#m          A                 B     F#m     G#m A B
But you my beauty shall be fixed forever loosely in my heart
F#m    B        C#m       B                 F#m B C#m B
Do I have to shake you babe until you're blind?
       F#m     B           C#m           B            F#m B C#m B
Cause every light bulbs' blown and I'm feeling so inclined

[Chorus]
A                     F#m
Can never lay my whole head down
 A                     F#m
Can never lay my whole head down
 A                     F#m
Can never lay my whole head down
 A                   E                        B
I know I'm lazy but baby I will work this time

  F#m G#m A B
  F#m G#m A B
  F#m G#m A B
  F#m G#m A B
  F#m

[Outro Riff}
e|-----------------------------------------------------------------|
B|-9-7---7-------------9-----------9-7---7-------------------------|
G|-----9---8-9-8-6-8s9---9-8s6---------9---8-9-8-6-8s9-8---6-------|
D|-----------------------------9-------------------------9---7s6---|
A|---------------------------------------------------------------9-|
E|-----------------------------------------------------------------|

e|-----------------------------------------------------------------|
B|-9-7---7-------------9-----------9-7---7-------------------------|
G|-----9---8-9-8-6-8s9---9-8s6---------9---8-9-8-6-8s9-8---6-------|
D|-----------------------------9-------------------------9---7s6---|
A|---------------------------------------------------------------9-|
E|-----------------------------------------------------------------|

            
            
Suggest correction
Creating personal tab
Creating personal tab
You can edit any tab online and save it as your Personal.

You can edit, replace or remove any tab part or add personal notes – all changes will be seen only by you.

Personal tabs can be accessed anytime from any device, even offline.
Learn more »
comments
print report bad tab
4 comments total. Showing first comments.
0 reply
thygy 10 Jan 23, 2017 06:17 PM

I think during the "can never lay my whole head down" part, it moves from A to B really quickly before going to the F#m again. The singing comes a lot more natural with it in my experience, but this is a great chords-section for the entire song!

Thank you a lot!

0 reply
fisherry 10 Mar 07, 2017 03:09 AM

any chance you could post the tabs for the intro & outro riff??
thanks heaps for this though!

0 reply
lol96uaz 184 Mar 20, 2017 09:49 PM

Thanks man for the lyrics! Been searching it for a while

guest
You may want to rate the tab now too:
select rating
Wanna post a correction for this tab? Suggest correction