Oops, an error
Loading. Please wait.

Dancing In The Moonlight Bass Tab

version 1
version 1

Whole song

Interactive

11,323 views 33 this week
1 commentread comment
1 2 3 4 5
worth learning
x 6
add to favorites
launch autoscroll
font size
0
reset
guitar tuner
Autoscroll
slow
fast
+/-
esc
set tempo
stop
Help us to improve Ultimate-Guitar.com Take our survey!
×
Author
Difficulty
novice
-------------------------------------------------------------------------------
			     SONG NAME - Dancing in the moonlight
-------------------------------------------------------------------------------

Tabbed By : bottom feeder
e-mail: mjb@northstate.net

Tuning:E A D G
intro at 6 measure
G|---------------------------------------------------------------------------------|
D|-----------------------55--------------------------------------------------------|
A|---------1----5---55---------3---------------------------------------------------|
E|-/1------------------------------------------------------------------------------|
verse
G|--------------------------------------------------------------------------------------|
D|-----------------------11---------------5-----5---------------------------------------|
A|----------0-----111---------55----33-------3------------------------------------------|
E|-1--2--4------------------------------------------------------------------------------|

| /  slide up
| \  slide down
| h  hammer-on
| p  pull-off
| ~  vibrato
| +  harmonic
| x  Mute note
Suggest correction
comments
print report bad tab
1 comment total.
0 reply
ivanjoness 60 wrote on May 9 2016, 01:57 pm

Close but not really. five six seven eight nine ten eleven twelve thirteen fourteen fifteen. sixteen? how many words wtf

guest
You may want to rate the tab now too:
select rating
Wanna post a correction for this tab? Suggest correction