Oops, an error
Loading. Please wait.

Dancing In The Moonlight bass

version 2
version 2

Whole song

Interactive

1,819 views 63 this week
no commentswrite comment
1 2 3 4 5
x 5
add to favorites
×
Save as Personal and add changes to this tab that will be seen only by you. Learn more ›
×
You can save this tab as Personal to edit and correct it or add notes. All changes will be seen only by you. Learn more »
launch autoscroll
font size
0
reset
guitar tuner
edit
Autoscroll
slow
fast
+/-
esc
set tempo
stop
Author
Difficulty
Tabbed by: Ben M. // I couldn't find a good tab online anywhere so here it is. 

Dancing In the Moonlight Bass Tab
by King Harvest

Tuning: Standard

INTRO
G|--------------------------------------|
D|---/3-----------------------5---------|
A|------------1----------55-----4--3----|
E|--------------------------------------|

"We get it on most every night.."

VERSE
G|---------------------------------------5/9-5------------------------------------------------|
D|---------------------------------------------9-5--------------------------------------------|
A|----------------------3--5-6--6-5--5-3------------------------------------------------------|
E|---1---3--4--5--6--6------------------------------------------------------------------------|

G|---------------------------------------------------------------------------------------(3)--|
D|---------------------------------------------------------------------------------------33---|
A|----------------------3--5-6--6-5--5-3---3-3------------------------3--6--6-5--5-3----3--3--|
E|---1---3--4--5--6---6-------------------------3--1---3--4--5--6---6-------------------------|

CHORUS
G|--------------------------------------------------------------------------------------------|
D|---------------------------------------------------------4----4----3------------------------|
A|---------------35-6--6-5--5-3---33-------------------35-6-6--5-5--3-3---363-----------------|
E|-1-1---34-6-6-----------------------3--1-1---34-6-6------------------------6----------------|


            
            
Suggest correction
Creating personal tab
Creating personal tab
You can edit any tab online and save it as your Personal.

You can edit, replace or remove any tab part or add personal notes – all changes will be seen only by you.

Personal tabs can be accessed anytime from any device, even offline.
Learn more »
comments
print report bad tab
guest
You may want to rate the tab now too:
select rating
Wanna post a correction for this tab? Suggest correction