Oops, an error
Loading. Please wait.

Dream On intro tab

1,294 views 1 this week
2 commentsread comments
1 2 3 4 5
2 more votes to show rating
add to favorites
×
Save as Personal and add changes to this tab that will be seen only by you. Learn more ›
×
You can save this tab as Personal to edit and correct it or add notes. All changes will be seen only by you. Learn more »
launch autoscroll
font size
0
reset
how to read this tab
guitar tuner
edit
Autoscroll
slow
fast
+/-
esc
set tempo
stop
Author
Difficulty
Band-King Kobra
Song-Dream On
Album-Thrill of a Lifetime(1986)

I don't know why I'm bothering to tab this, nobody knows who king kobra is(they were
80's metal band) and there is not one tab of them on here so nobody cares about them. So I
I would at least tab the intro to their song dream on. It's a good song and my favorite. 
Here you go

Drum Fill

Then come in with this, this riff won't sound right unless your pickup switch is in the 
the way up

I didn't have my guitar with me, so I tried to remember it

Intro(this is such a kick ass riff)
e|---------------------------------------------|
b|---------------------------------------------|
g|-19~~--18-19-14~~-19-17~-19-17-19-20br-17-19-|
d|---------------------------------------------|
a|---------------------------------------------|
E|---------------------------------------------|


|---------------------------------------------|
|---------------------------------------------|
|-19~~--18-19-14~~-19-17~-19-17-19-20br-17-19-|
|---------------------------------------------|
|---------------------------------------------|
|---------------------------------------------|

|------------------------------------------------------|
|---------------------------------------19b-21b-21b~~~~|
|-19~~--18-19-14~~-19-17~-19-17-19-20br----------------|
|------------------------------------------------------|
|------------------------------------------------------|
|------------------------------------------------------|

This sounds perfect when I play it, so if you think it sounds wrong, your not playing it right.

I'll Submit the rest later if anybody wants it, this song is just a bit hard to hear but
working on it.

Legend
b=Bend
br= Bend then release
~Vibrato

http://www.angelfire.com/band/kingkobra/

            
            
Suggest correction
Creating personal tab
Creating personal tab
You can edit any tab online and save it as your Personal.

You can edit, replace or remove any tab part or add personal notes – all changes will be seen only by you.

Personal tabs can be accessed anytime from any device, even offline.
Learn more »
Give kudos to tab author, rate the tab!
1 2 3 4 5
comments
print report bad tab
2 comments total.
0 reply
Ratt n' Roll 205 May 23, 2008 04:06 AM

I messed up on the intro by one note so here is the corercted intro.

e|---------------------------------------------|
b|---------------------------------------------|
g|-19~~--18-19-14~~-19-17~-19-17-19-20br-20-17-|
d|---------------------------------------------|
a|---------------------------------------------|
E|---------------------------------------------|


|---------------------------------------------|
|---------------------------------------------|
|-19~~--18-19-14~~-19-17~-19-17-19-20br-20-17-|
|---------------------------------------------|
|---------------------------------------------|
|---------------------------------------------|

|------------------------------------------------------|
|---------------------------------------19b-21b-21b~~~~|
|-19~~--18-19-14~~-19-17~-19-17-19-20br----------------|
|------------------------------------------------------|
|------------------------------------------------------|
|------------------------------------------------------|

0 reply
MegaSeth91 10 Jul 14, 2011 05:57 PM

Dude don't worry Rock and Metal aren't dead..
I'm almost 20 and I have been playing guitar for about 18 months now...And I'm a quick study and I love King Kobra..And True Rock and Metal..And the reason why I rated it Accurate is because I've been playing for 18 months and it sound pretty close...I would love some more King Kobra tabs..
Sincerely; MegaSeth

guest
You may want to rate the tab now too:
select rating
Wanna post a correction for this tab? Suggest correction