Oops, an error
Loading. Please wait.

Baby Blue tab

version 3
version 3

Whole song

13,240 views 330 this week
5 commentsread comments
1 2 3 4 5
x 20
add to favorites
×
Save as Personal and add changes to this tab that will be seen only by you. Learn more ›
×
You can save this tab as Personal to edit and correct it or add notes. All changes will be seen only by you. Learn more »
launch autoscroll
font size
0
reset
how to read this tab
guitar tuner
edit
Autoscroll
slow
fast
+/-
esc
set tempo
stop
Author
Difficulty
intermediate
[Intro]
e|-------------------------------------------|
B|-11----11-----8----------------------------|
G|-12----12-----7----------------------------|
D|-10----9------8 ---------------------------|
A|-11----11-----6----------------------------|
E|-------------------------------------------|(repeat 3 times)

e|--------------------------------------|--------------------------|---------------------|
B|-------11--------11-------8---------8-|-------11-------------11--|----8-------8--------|
G|-----12--12----12-12----7--7----7---7-|-----12--12-----12----12--|---7-7---7--7--------|
D|---10-----10--9-----9--8----8--8----8-|---10------10--9------10--|--8---8-8---8--------|
A|-11---------11-------6-------6--------|-11----------11-----------|-6-----6----6--------|
E|--------------------------------------|--------------------------|---------------------|

e|----------------------|----------------|------------------------------------------------|
B|-------11----------11-|----8-----8-----|--8---------------------------------------------|
G|-----12--12----12--12-|---7-7---7-7----|--7---------------------------------------------|
D|---10-----10--9----10-|--8---8-8---8---|--8---------------------------------------------|
A|-11---------11-----11-|-6-----6-----6--|--6---------------------------------------------|
E|--------------------- | ---------------|------------------------------------------------|

My sandpaper sigh engraves a line
Into the rust of your tongue
Girl I could've been someone to you
Would have painted the skies blue~~

[Chorus] 
(continue from last cord)
e|------3-----------------------------------------------------------------------|
B|-8----3-----4-----------------------------------------------------------------|
G|-7----3-----5-----------------------------------------------------------------|
D|-8----5-----5-----------------------------------------------------------------|
A|-6----3-----0-----------------------------------------------------------------|
E|------------4-----------------------------------------------------------------|(repeat 4 times)

For you who look at "33353" confused like wut, it has to be barred.

e|---------------------------------------|-------------------------|------------------------|
B|-------11--------11-----6---8----------|-------11-----------11---|----8-------7-----------|
G|-----12--12----12-12----7---7--7-------|-----12--12-----12--12---|---7-7---7--6-----------|
D|---10-----10--9-----9---5---8--8-------|---10------10--9----10---|--8---8-8---7-----------|
A|-11---------11-------12-6---6--6-------|-11----------11-----11---|-6-----6----6-----------|
E|---------------------------------------|-------------------------|------------------------|

e|-----------------|------------------------------------------------------------------------|
B|-11----11-----8--|--11----11----8---------------------------------------------------------|
G|-12----12-----7--|--12----12----7---------------------------------------------------------|
D|-10----9------8--|--10----9-----8---------------------------------------------------------|
A|-11----11-----6--|--11----11----6---------------------------------------------------------|
E|-----------------|------------------------------------------------------------------------|

e|------3--------|--------3------------|--------3----------------------3--------|
B|-8----3-----4--|---8----3-----4------|---8----3-----4-------|---8----3-----4--|
G|-7----3-----5--|---7----3-----5--5---|---7----3-----5---5---|---7----3-----5--|
D|-8----5-----5--|---8----5-----5--5---|---8----5-----5---5---|---8----5-----5--|
A|-6----3-----0--|---6----3-----0--0---|---6----3-----0---0---|---6----3-----0--|
E|------------4--|--------------4--4---|--------------4---4---|--------------4--|

e|---------------------------|--------------------------------------------------------------|
B|-11----11-----8----7----8--|----11----11---------8--6-------------------------------------|
G|-12----12-----7----6----7--|----12----12---12----7--7-------------------------------------|
D|-10----9------8----7----8--|----10-----9----9----8--5-------------------------------------|
A|-11----11-----6----6----6--|----11----11---11----6--6-------------------------------------|
E|---------------------------|--------------------------------------------------------------|

Edging closer, you swing my way
Girl I've got no chance
And nothing to say
Girl but stay here for a little while
Baby blue
But if only you could see
My shadow crossing your path
It won't be the last baby
You are my baby..
You are my baby

[Ending]
e|-----------------|------------------------------------------------------------------------|
B|-11----11-----6--|----11----11----8-------------------------------------------------------|
G|-12----12-----7--|----12----12----7-------------------------------------------------------|
D|-10----9------5--|----10-----9----8-------------------------------------------------------|
A|-11----11-----6--|----11----11----6-------------------------------------------------------|
E|-----------------|------------------------------------------------------------------------|



************************************

|   

************************************

            
            
Suggest correction
Creating personal tab
Creating personal tab
You can edit any tab online and save it as your Personal.

You can edit, replace or remove any tab part or add personal notes – all changes will be seen only by you.

Personal tabs can be accessed anytime from any device, even offline.
Learn more »
comments
print report bad tab
5 comments total. Showing first comments.
0 reply
superlegodudex 10 Sep 11, 2016 05:33 PM

Very touching

+4 reply
miaoyanfeng96 10 Sep 23, 2016 11:29 AM

Thank u sooooo much!!!!!!!!!!

0 reply
just_henry 50 Mar 25, 2017 12:45 PM

Are these chords major 7's?

guest
You may want to rate the tab now too:
select rating
Wanna post a correction for this tab? Suggest correction