Oops, an error
Loading. Please wait.

Baby Blue tab

version 4
version 4

Whole song

1,687 views 18 this week
1 commentread comment
1 2 3 4 5
2 more votes to show rating
add to favorites
×
Save as Personal and add changes to this tab that will be seen only by you. Learn more ›
×
You can save this tab as Personal to edit and correct it or add notes. All changes will be seen only by you. Learn more »
launch autoscroll
font size
0
reset
how to read this tab
guitar tuner
edit
Autoscroll
slow
fast
+/-
esc
set tempo
stop
Author
Difficulty
*Recommend watch https://www.youtube.com/watch?v=ssMQ95KzAec for more understanding*

I've searched everywhere for full song and could not find. So after a long search and gathering all the pieces 
together and all the videos and mini tabs i found all i needed...Enjoy!!

 *Intro*                         
e|-----------------------------------------|
B|-11----11-----8--------------------------|
G|-12----12-----7--------------------------|
D|-10----9------8 -------------------------|
A|-11----11-----6--------------------------| 
E|-----------------------------------------| (repeat 3 times)     

e|--------------------------------------|--------------------------|---------------------|
B|-------11--------11-------8---------8-|-------11-------------11--|----8-------8--------|
G|-----12--12----12-12----7--7----7---7-|-----12--12-----12----12--|---7-7---7--7--------|
D|---10-----10--9-----9--8----8--8----8-|---10------10--9------10--|--8---8-8---8--------|
A|-11---------11-------6-------6--------|-11----------11-----------|-6-----6----6--------|
E|--------------------------------------|--------------------------|---------------------|

e|----------------------|----------------|------------------------------------------------|
B|-------11----------11-|----8-----8-----|--8---------------------------------------------|
G|-----12--12----12--12-|---7-7---7-7----|--7---------------------------------------------|
D|---10-----10--9----10-|--8---8-8---8---|--8---------------------------------------------|
A|-11---------11-----11-|-6-----6-----6--|--6---------------------------------------------|
E|--------------------- | ---------------|------------------------------------------------|
  
~~tpMy sandpaper sigh engraves a line
Into the rust of your tongue
Girl I could've been someone to you
Would have painted the skies blue~~

*This is the Baby Blue part, where he repeats 'Baby Blue'. 
Chorus: *continue from last cord^*
e|------3-----------------------------------------------------------------------|
B|-8----3-----4-----------------------------------------------------------------|
G|-7----3-----5-----------------------------------------------------------------|
D|-8----5-----5-----------------------------------------------------------------|
A|-6----3-----0-----------------------------------------------------------------|
E|------------4-----------------------------------------------------------------|(repeat 4 times)

For you who look at "33353" confused like wut, it has to be barred.

         
e|---------------------------------------|-------------------------|------------------------|
B|-------11--------11-----6---8----------|-------11-----------11---|----8-------7-----------|
G|-----12--12----12-12----7---7--7-------|-----12--12-----12--12---|---7-7---7--6-----------|
D|---10-----10--9-----9---5---8--8-------|---10------10--9----10---|--8---8-8---7-----------|
A|-11---------11-------6--6---6--6-------|-11----------11-----11---|-6-----6----6-----------|
E|---------------------------------------|-------------------------|------------------------|


e|-----------------|------------------------------------------------------------------------|
B|-11----11-----8--|--11----11----8---------------------------------------------------------|
G|-12----12-----7--|--12----12----7---------------------------------------------------------|
D|-10----9------8--|--10----9-----8---------------------------------------------------------|
A|-11----11-----6--|--11----11----6---------------------------------------------------------|
E|-----------------|------------------------------------------------------------------------|

e|------3--------|--------3------------|--------3-----------------------3-------------------|
B|-8----3-----4--|---8----3-----4------|---8----3-----4-------|---8----3-----4--------------|
G|-7----3-----5--|---7----3-----5--5---|---7----3-----5---5---|---7----3-----5--------------|
D|-8----5-----5--|---8----5-----5--5---|---8----5-----5---5---|---8----5-----5--------------|
A|-6----3-----0--|---6----3-----0--0---|---6----3-----0---0---|---6----3-----0--------------|
E|------------4--|--------------4--4---|--------------4---4---|--------------4--------------|


e|---------------------------|--------------------------------------------------------------|
B|-11----11-----8----7----8--|----11----11---------8--6-------------------------------------|
G|-12----12-----7----6----7--|----12----12---12----7--7-------------------------------------|
D|-10----9------8----7----8--|----10-----9----9----8--5-------------------------------------|
A|-11----11-----6----6----6--|----11----11---11----6--6-------------------------------------|
E|---------------------------|--------------------------------------------------------------|

Ending:
e|-----------------|------------------------------------------------------------------------|
B|-11----11-----6--|----11----11----8-------------------------------------------------------|
G|-12----12-----7--|----12----12----7-------------------------------------------------------|
D|-10----9------5--|----10-----9----8-------------------------------------------------------|
A|-11----11-----6--|----11----11----6-------------------------------------------------------|
E|-----------------|------------------------------------------------------------------------|

Sorry i do not know the outro :(

If any corrections are seen please comment it! Thanks! 


~~~~~~~~~~~~~~~~~~~~~~~~~~~~~
Instagram: @blurito 
Email contact codecs1234556@hotmail.com

            
            
Suggest correction
Creating personal tab
Creating personal tab
You can edit any tab online and save it as your Personal.

You can edit, replace or remove any tab part or add personal notes – all changes will be seen only by you.

Personal tabs can be accessed anytime from any device, even offline.
Learn more »
Give kudos to tab author, rate the tab!
1 2 3 4 5
comments
print report bad tab
1 comment total.
0 reply
LA_Corkscrew 10 Aug 15, 2016 05:05 AM

This tab had an extra chord the others didn't, I played it and damn it sounds way more complex in a good way. I wish you added th e extra sliding tabs tho still best one Ive read yet

guest
You may want to rate the tab now too:
select rating
Wanna post a correction for this tab? Suggest correction