Oops, an error
Loading. Please wait.

Ocean Bed tab

version 1
version 1

Whole song

31,312 views 87 this week
1 commentread comment
1 2 3 4 5
x 16
add to favorites
×
Save as Personal and add changes to this tab that will be seen only by you. Learn more ›
×
You can save this tab as Personal to edit and correct it or add notes. All changes will be seen only by you. Learn more »
launch autoscroll
font size
0
reset
how to read this tab
guitar tuner
edit
Autoscroll
slow
fast
+/-
esc
set tempo
stop
Author
Difficulty
intermediate
Ocean Bed - King Krule
Tabbed by:BoyArmed(spilldose)
Email:slipknot1470@hotmail.com
Tuning:Standard

Im going to make this easier for everyone. But mostly me :)
The major chords involved in this song are these and their the ones
that pretty much helped me figure this out by ear. These are the
chords archy uses for the breaks in between verses.

My timing isnt well perfected into tabbing it how archy plays it
but just listen to the song and you'll get it.

e|---------------------------------------------------------------|
B|--9-----4----------5-------------------------------------------|
G|--9-----4-----9----6-------------------------------------------|
D|--9-----4-----9----6-------------------------------------------|
A|--11----6-----x----7-------------------------------------------|
E|--9-----4-----8----5-------------------------------------------|

[Main Riff]
    pm.......................  x2
e|----------------------------|
B|-------9(9)------9-9h10p9~--|
G|-------9(9)-----(9)---------|
D|--9h11-9-9h11-11(11)--------|
A|--0----0-0-----0------------|
E|----------------------------|

[Intro]
             V=strum up
e|-----------4~-------|
B|-----------7~-------|
G|--------4--4~-------|
D|------6----6~-------|
A|----7------7~-------|
E|--------------------|

Alright the only difference in the verses is the sections after
the main riff. so instead of tabbing them out over and over.
im just going to label them 1,2,3,4 etc. The timing on this is
probably off but just listen to the song

[Verse] (Main Riff)          x2
e|----------------------------|
B|-------9(9)------9-9h10p9~--|
G|-------9(9)-----(9)---------|
D|--9h11-9-9h11-11(11)--------|
A|--0----0-0-----0------------|
E|----------------------------|

    1)   V                                 Back to [main riff]
e|---------------------------------------------------------------|
B|-----9-9-----9--9--------77--7--7--7---------------------------|
G|-----9-9-----9--9--------55--5--5--5---------------------------|
D|-----9-9-----9--9--------66--6--6--6---------------------------|
A|-----1111----11-11-----7-77--7--7--7---------------------------|
E|--9--9-9---9-9--9----------------------------------------------|

    2)  V                                  Back to [main riff]
e|-------------------------------------------------|
B|----9-9---(12)12--12--------77--7--7--7----------|
G|----9-9----9--9---9---------55--5--5--5----------|
D|----9-9----9--9---9---------66--6--6--6----------|
A|----1111---11-11--11-----7--77--7--7--7----------|
E|--9-9-9--9-9--9---9------------------------------|

   3)   V                                 Back to [main riff]
e|---------------------------------------------|
B|----9-9--- 14/12--------77--7--7--7----------|
G|----9-9----9------------55--5--5--5----------|
D|----9-9----9------------66--6--6--6----------|
A|----1111---11--------7--77--7--7--7----------|
E|--9-9-9--9-9---------------------------------|

   4)   V
e|---------------------------------------------|
B|----9-9--- 14/12--------77--7--7--7----------|
G|----9-9----9---9--------55--5--5--5----------|
D|----9-9----9------------66--6--6--6----------|
A|----1111---11--------7--77--7--7--7----------|
E|--9-9-9--9-9---------------------------------|

"Too heaven.."
e|-----------------------------~9/----------4~ ----------------|
B|--7-- 7~ 7---7~ -7---7~ 7------------------------------------|
G|--4- 4~ -5--5~ --6--6~ -7--7~ ------6--6~ -----8---8~ -------
D|--6 6~ --6-6~ ---6-6~ --6-6~ -------6-6~ ------9--9~ --9/----
A|--7------7-------7------7-----------x----------9-9~ ---------|
E|--0------0-------0------0-----------5----------7-------------|

 [Break]                                x2
e|---------------------------------------------------------------|
B|------9------44-4-------------555------------------------------|
G|------9------44-4-------9-----666------------------------------|
D|------9------44-4-------9-----666------------------------------|
A|---11-11-----66-6-----9-x-----777------------------------------|
E|-9----9----4-44-4---8---8---5-555------------------------------|

                                            X3  after the third time after
                                                8-9 chord go back to verse
e|--------------------------------------------|------------------|
B|-------9------44-4------------555----555----|------------------|
G|-------9------44-4------9-----666----666----|------------------|
D|-------9------44-4------9-----666----666----|------------------|
A|----11-11-----66-6---9--x-----777----777----|------------------|
E|--9----9----4-44-4--8---8---5-555--5-555----|------------------|

[Interlude]
its just the root notes.
                                  that 9 counts as a strum to repeat
                               x4  dont hit it twice
e|---------------------------------------------------------------|
B|---------------------------------------------------------------|
G|---------------------------------------------------------------|
D|---------------------------------------------------------------|
A|-----9/-----4----9/-----6~-------------------------------------|
E|--9~-------4~---8~----5~---5/9---------------------------------|

                                        x3    do this after the third time
e|--------------------------------------------|---------------------|
B|-------9------44-4------------555----555----|----------7~let ring-|
G|-------9------44-4------9-----666----666----|-----9----5~---------|
D|-------9------44-4------9-----666----666----|-----9----6~---------|
A|----11-11-----66-6---9--x-----777----777----|---9-x----7~---------|
E|--9----9----4-44-4--8---8---5-555--5-555----|--8--8---------------|

The outro is just this main riff with variations of 12 and 14
on the B string. everything is just lightly plucked. And there you have it

************************************

| x    Dead note
| (n)  Ghost note
| h    Hammer-on
| p    Pull-off
| ~    Vibrato
| /    Slide up

************************************

            
            
Suggest correction
Creating personal tab
Creating personal tab
You can edit any tab online and save it as your Personal.

You can edit, replace or remove any tab part or add personal notes – all changes will be seen only by you.

Personal tabs can be accessed anytime from any device, even offline.
Learn more »
comments
print report bad tab
1 comment total.
+5 reply
BoyArmed 62 Sep 12, 2013 11:44 PM

On the interlude, it should be this
e|---------------------------------------------------------------|
B|---------------------------------------------------------------|
G|---------------------------------------------------------------|
D|-----9/-----4/----9/----6~-------------------------------------|
A|---------------------------------------------------------------|
E|--9~-------4~---8~----5~---5/9---------------------------------|

guest
You may want to rate the tab now too:
select rating
Wanna post a correction for this tab? Suggest correction