Oops, an error
Loading. Please wait.

Rock Bottom Chords

48,708 views 246 this week
2 commentsread comments
1 2 3 4 5
excellent!
x 8
add to favorites
launch autoscroll
font size
0
reset
transpose
0
reset
simplify chords
display chords
guitar tuner
Autoscroll
slow
fast
+/-
esc
set tempo
stop
Help us to improve Ultimate-Guitar.com Take our survey!
×
Author
Difficulty
Larsio 38
novice
[Intro]

  C#m6  D#7     Gmaj7 G#maj7 C#7    Fmaj7 F#maj7 B7
e|-----------11---10---11----9----9--------------7----7---7----------------|
B|-14---14---14---12---13---12---11---10---11---10----9---7----------------|
G|-13---12---12---11---12---10---10----9---10----8---10--10----------------|
D|-14---11---11---12---13----9----9---10---11----7---11---7----------------|
A|-13---13---13---10---11---11---11----8----9----8----8---8----------------|
E|------11---11--------------9----9--------------7----7---7----------------|

e|---------------11--------------------11-----|
B|-14-----14-----14--12/13--13--12/13------13-|
G|-13-----12-----12--11/12--12--11/12----12---|
D|-14----11-----11---12/13--13--12/13---------|
A|-13---13-----13----10/11--11--10/11---------|
E|-----11-----11------------------------------|

e|----10------10--------------------------7------7----|
B|----12------11---10/11--11-----11-------9------8----|
G|----10------10----9/10--10-------9------10-----10---|
D|---9-------9-----10/11--11---11--------11-----11----|
A|--11------11-------8/9---9---9---------8------8-----|
E|-9-------9----------------------------7------7------|
                           
          
[Verse]

D#maj7 Emaj7 B6    E6           E      Amaj7
e|--------|----------------------------------|
B|-8---9--|-9---9---9---9---9---9--------5---|
G|-7---8--|-8---8---8---9---9---9--------6---|
D|-7---9--|-9-----------9---9---9--------6---|
A|-6---7--|-7---9---9------------------------|
E|--------|-----7---8---9---8---7---7-6--5---|


[Bridge]

   B6  E6
e|-4---9--|
B|-4---9--|
G|-4---9--|
D|-4---9--|
A|-6---11-|
E|-4---9--|


[Outro]

 Emaj7 F#m G#m  C#m6  B7   E7 
e|-----------------------------|
B|-9---10---12---14---16---9---|
G|-8---11---13---13---14---9---|
D|-9---11---13---14---16---9---|
A|-7---9----11---13---14---11--|
E|-------------------------9---|

   E  A6   B6 Amaj7 B7 E6   E6      E   Amaj7
e|------------------------------------------|
B|-9---2---4---5-------9----9---9---9---5---|
G|-9---2---4---6---8---9----9---9---9---6---|
D|-9---2---4---6---7---9----9---9---9---6---|
A|-11--4---6-------9------------------------|
E|-----2---4---5---7---9----9---8---7---5---|


[Intro]

This is dedicated to a Mr. Bree,
And a Mr Reed, and a Mr. Pilot and a Mr. Mood


[Verse 1]

I've hit rock bottom, and I'm running away
I've made it babe, think what your lover would say
Think in a properly way
See girl I won’t say, until it finds me
One day


[Bridge]

B6  E6


[Verse 2]

My mind starts to derange
Distortions arrange, sight looses it's range
Does everyone's perspective begins to change
Uh I must say, just something to blame
another thing wrong with the game
and watch me as I descend into shame
Into, into shame
Into, into shame


[Bridge]

Where your heart's gonna mourn,
You lie dead on the floor
The wounds in your pockets still sore
And everyone who watched you, watched on and on
But now you see it's nothing but poor
And I'm a lost soul, never accomplished a goal
Or made a lie out of their lives
They're the ones who pulled out tonight
Neither oh, everything's going in front of your eyes
Your hands have lost the grip on the prize
and you've got no more tries
Cause you've lost them trough lies
I'll be your lucky this time
And hope it'll make you seem more wiser
Otherwise, they'll leave you to your own demise


[Outro]

Cause it's the end of something I do not want to end
Beginning of hard times to come
I've been something I was not meant to be
I guess it's the start of your world

************************************

| /  Slide up

************************************
Suggest correction new What's this?
You can suggest a correction to this tab. Community and Mods will review your correction and vote to approve or reject it.
comments
print report bad tab
2 comments total.
0 reply
MinorBlue 11 wrote on February 17 2013, 10:06 am

Æ har ikke nok fingra til det grepet der du bare flytte en tone, etter C#7 i introen, ka e trikset?

0 reply
Larsio 38 wrote on February 26 2013, 06:46 am

Aj, det har ikke æ heller. Bra du sa ifra så æ får fiksa det. Kan prøve å tabbe det han spille så blir det sikkert bedre.

guest
You may want to rate the tab now too:
select rating
Please do not post tabs as comments. Select "correction" instead!