Oops, an error
Loading. Please wait.

139 tab

487 views 6 this week
no commentswrite comment
1 2 3 4 5
2 more votes to show rating
add to favorites
×
Save as Personal and add changes to this tab that will be seen only by you. Learn more ›
×
You can save this tab as Personal to edit and correct it or add notes. All changes will be seen only by you. Learn more »
launch autoscroll
font size
0
reset
how to read this tab
guitar tuner
edit
Autoscroll
slow
fast
+/-
esc
set tempo
stop
Author
Difficulty
139- Kings Kaleidoscope
Two guitar parts for each section of the song.
Hopefully you get some good use out of this tab. 
Amazing song from Kings K as always.


[Intro] 

(this is played on piano, but here it is on guitar)

e|--------------7-|----------------|--------------7-|9-------7-------|
B|5---------9-----|7---------------|5---------9-----|----------------|
G|----------------|--------6-------|----------------|----------------|
D|----------------|----------------|----------------|----------------|
A|----------------|----------------|----------------|----------------|
E|----------------|----------------|----------------|----------------|


[Verse]

GUITAR 1- Tapping pattern
*index finger bars and stays on the 9th fret*

e|--------------------|--------------------|
B|14p9-12p9-----------|14p9-12p9-----------|
G|----------13p9------|----------13p9------|
D|---------------13p9-|---------------13p9-|
A|--------------------|--------------------|
E|--------------------|--------------------|

GUITAR 2

     C#m   E       A      B        C#m   E       A      B
e|-----------------------------|-----------------------------|
B|-----------------14-----16---|-----------------14-----16---|
G|----9----13------------------|----9----13------------------|
D|-----------------------------|-----------------------------|
A|-----------------12-----14---|-----------------12-----14---|
E|----9----12------------------|----9----12------------------|
you heard my first heartbeat,   before I could breathe.
   Before my first cry,        You knew me. 


[Chorus]

GUITAR 1- Another tapping pattern for the chorus
*index finger bars and stays on the 12th fret*

e|14p12-16p12-14p12-------|14p12-16p12-14p12-------|
B|------------------14p12-|------------------14p12-|
G|------------------------|------------------------|
D|------------------------|------------------------|
A|------------------------|------------------------|
E|------------------------|------------------------|

GUITAR 2-
repeat this the whole chorus
  
 C#m           Bsus            A
e|0------------|0-------------|0----------------------------|
B|0------------|0-------------|0----------------------------|
G|9------------|9-------------|2----------------------------|
D|9------------|9-------------|2----------------------------|
A|x------------|x-------------|0----------------------------|
E|9------------|7-------------|x----------------------------|
  I could run away,         or hide beneath the sea

 F#m7          G#m           Amaj7
e|0------------|0-------------|0----------------------------|
B|0------------|0-------------|0----------------------------|
G|2------------|4-------------|6----------------------------|
D|2------------|4-------------|6----------------------------|
A|x------------|x-------------|x----------------------------|
E|2------------|4-------------|5----------------------------|
 You still,     hear my,     praise!


[Bridge]

GUITAR 1- Not sure of the exact part, but this fits with the section.

e|16--16--16--16--|11--11--11--11--|9--9--9--9--|11--11--11--11--|
B|14--14--14--14--|9---9---9---9---|9--9--9--9--|9---9---9---9---|
G|14--14--14--14--|9---9---9---9---|6--6--6--6--|9---9---9---9---|
D|----------------|----------------|------------|----------------|
A|----------------|----------------|------------|----------------|
E|----------------|----------------|------------|----------------|

GUITAR 2- comes in at "you are the God who knows and loves me" second time

e|----------|----------|----------|----------|
B|---9------|---4------|---2------|---4------|
G|--9----9--|--4----4--|--2----2--|--4----4--|
D|-9--------|-4--------|-2--------|-4--------|
A|----------|----------|----------|----------|
E|9---------|4---------|2---------|4---------|

Eventually just strum these chords

 C#m            G#m            F#m7           G#m
e|x-------------|x-------------|x-------------|x-------------|
B|9-------------|4-------------|2-------------|4-------------|
G|9-------------|4-------------|2-------------|4-------------|
D|9-------------|4-------------|2-------------|4-------------|
A|x-------------|x-------------|x-------------|x-------------|
E|9-------------|4-------------|2-------------|4-------------|



************************************

| x  Dead note
| p  Pull-off

************************************
Suggest correction
Creating personal tab
Creating personal tab
You can edit any tab online and save it as your Personal.

You can edit, replace or remove any tab part or add personal notes – all changes will be seen only by you.

Personal tabs can be accessed anytime from any device, even offline.
Learn more »
Give kudos to tab author, rate the tab!
1 2 3 4 5
comments
print report bad tab
guest
You may want to rate the tab now too:
select rating
Wanna post a correction for this tab? Suggest correction