Oops, an error
Loading. Please wait.

Grace Alone tab

517 views 15 this week
no commentswrite comment
1 2 3 4 5
1 last vote to show rating
add to favorites
×
Save as Personal and add changes to this tab that will be seen only by you. Learn more ›
×
You can save this tab as Personal to edit and correct it or add notes. All changes will be seen only by you. Learn more »
launch autoscroll
font size
0
reset
how to read this tab
guitar tuner
edit
Autoscroll
slow
fast
+/-
esc
set tempo
stop
Grace Alone-Kings Kaleidoscope (Cover)
By: Steven Bestgen

Capo: 3
Tuning: D A D F# A D


[Intro]
                F        F2         
e|------------------------------|
B|-------------12br-----10br----|
G|-------0---------------------0|
D|------------------------------|2x
A|----0----0--------0--------0--|
E|--0--------0-------0--------0-|


[Verse 1]

                F       F2                Am                  F                 
e|------------------------------|--------------------------------------------|
B|------------12br----10br------|-------------------------5br---5br---5br----|
G|------0-----------------------|------3----3----3---------------------------|
D|------------------------------|2x -----------------------------------------|
A|---0----0--------0--------0---|----5---5----5----5----0-----0-----0-----0--|
E|--0------0--------0--------0--|---5-----5----5----0--0-------0-----0-----0-|
                F       F2                Am                  F                 
e|------------------------------|--------------------------------------------|
B|-----------12br-----10br------|-------------------------5br----5br~--------|
G|------0----------------------0|------3----3----3---------------------------|
D|------------------------------|2x------------------------------------------|
A|---0----0--------0--------0---|----5---5----5----5----0-----0--------------|
E|--0------0--------0--------0--|---5-----5----5----0--0-------0-------------|

I was on orphan, lost at the fall
Running away when I heard u call
But, Father, You worked your will
I had no righteousness on my own
I had no right draw you near Your throne
But, Father, You Loved me still


[Chorus 1]

                    Dm                    A#                                      
e|---------------------------------------------------------------------------|
B|---------------------------------------------------------------------------|
G|------7-----7-----7-----7-----7------3-----3~~-----------------------------|
D|---------------------------------------------------------------------------|3x
A|----9---9-----9-----9-----9--------5---5-----------------------------------|
E|--9-------9-----9-----9-----9----5-------5---------------------------------|

        Dm          C                F                             
e|---------------------------------------------------------------------------|
B|---------------------------------------------------------------------------|
G|------7-----------5-----------0------0------0~~----------------------------|
D|---------------------------------------------------------------------------|
A|----9---9-------7---7-------0---0------0-----------------------------------|
E|--9-------9---7-------7---0-------0------0---------------------------------|

And in love before You laid the world’s foundation 
You predestined to adopt me as Your own 
You have raised me so high above my station  
I’m a child of God by grace & grace alone


[Verse 2]

                F       F2                Am                  F                 
e|------------------------------|--------------------------------------------|
B|------------12br----10br------|-------------------------5br---5br---5br----|
G|------0-----------------------|------3----3----3---------------------------|
D|------------------------------|2x -----------------------------------------|
A|---0----0--------0--------0---|----5---5----5----5----0-----0-----0-----0--|
E|--0------0--------0--------0--|---5-----5----5----0--0-------0-----0-----0-|

                F       F2                Am                  F                 
e|------------------------------|--------------------------------------------|
B|-----------12br-----10br------|-------------------------5br----5br~--------|
G|------0----------------------0|------3----3----3---------------------------|
D|------------------------------|2x------------------------------------------|
A|---0----0--------0--------0---|----5---5----5----5----0-----0--------------|
E|--0------0--------0--------0--|---5-----5----5----0--0-------0-------------|

You left Your home to seek out the lost
You knew the great & terrible cost
But Jesus, Your face was set                 
I worked my fingers down to the bone
But nothing I did could ever atone
But Jesus, You paid my debt
 

[Chorus 2]

                     Dm                    A#                                      
e|---------------------------------------------------------------------------|
B|---------------------------------------------------------------------------|
G|------7-----7-----7-----7-----7------3-----3~~-----------------------------|
D|---------------------------------------------------------------------------|3x
A|----9---9-----9-----9-----9--------5---5-----------------------------------|
E|--9-------9-----9-----9-----9----5-------5---------------------------------|

       Dm            C      F                                        
e|---------------------------------------------------------------------------|
B|---------------------------------------------------------------------------|
G|------7-----------5-------0~-----------------------------------------------|
D|--------------------------0~-----------------------------------------------|
A|----9---9-------7---7-----0~-----------------------------------------------|
E|--9-------9---7-------7---0~--0--0--0--0--0--0-----------------------------|

By Your blood I have redemption and salvation
Lord, You died that I might reap what You have sown
And You rose that I might be a new creation 
I am born again by grace & grace alone


[Verse 3]

A#                        C
I was in darkness all of my life
Dm                         C
I never knew the day from the night
A#           C                 Dm
But, Spirit, You made me see
A#                   C
I swore I knew the way on my own 
Dm                      C
A head full of rocks, a heart made of stone
A#          C                  Dm
But Spirit, You moved in me
 

[Chorus 3]

A#                          C              Dm
And at Your touch my sleeping spirit was awakened 
A#                          C                  Dm
On my darkened heart, the light of Christ has shown 
A#           C                          Dm
Called into a Kingdom that cannot be shaken 
A#                     C             Dm
Heaven’s citizen by grace & grace alone


[Bridge]

A#                           C            Dm
Yes I’ll stand in faith by grace & grace alone
 A#                       C             Dm 
I will run this race by grace & grace alone 
A#                       C           Dm 
I will slay my sins by grace & grace alone 
A#                        C             Dm 
I will reach the end by grace & grace alone

A# C Dm 2x



************************************

| x   Dead note
| br  Bend release
| ~   Vibrato

************************************

            
            
Suggest correction
Creating personal tab
Creating personal tab
You can edit any tab online and save it as your Personal.

You can edit, replace or remove any tab part or add personal notes – all changes will be seen only by you.

Personal tabs can be accessed anytime from any device, even offline.
Learn more »
Give kudos to tab author, rate the tab!
1 2 3 4 5
comments
print report bad tab
guest
You may want to rate the tab now too:
select rating
Wanna post a correction for this tab? Suggest correction