Oops, an error
Loading. Please wait.

Cayman Islands Tab

version 1
version 1

Intro

Whole song

Interactive

27,015 views 3 this week
no commentswrite comment
1 2 3 4 5
please rate
add to favorites
launch autoscroll
font size
0
reset
how to read this tab
guitar tuner
Autoscroll
slow
fast
+/-
esc
set tempo
stop
Help us to improve Ultimate-Guitar.com Take our survey!
×
Author
Capo
2nd fret
Kings of Convenience: Cayman Islands
Standard Tuning: EAGDBe

NOTE: this is not EXACTLY how they play it. this version sounds very similar to the recording
It sounds great by itself, but if you play along with the track they have slightly different
picking. Play around with it and you can probably get it pretty close to how they really 
it.

Capo II
Intro/verse
e|-0--------------------0-----------------|
B|-----------3------------------3---------|
G|---------2---2---2----------2---2---2---|
D|------3-------3---3------3-------3---3--|
A|----------------------------------------|
E|-1--------------------1-----------------|

e|-0------------------0------------------|
B|-------5-------------------5-----------|
G|-----4---4---4-----------4---4---0-----|
D|---5-------5---5-------5-------5----5--|
A|---------------------------------------|
E|-3------------------3------------------|

e|----------------------------------------------------------------|
B|-0------0------------0------0----------0-----0---------1---3----|
G|------0---0---0-----------0---0---0--------0---0---0------------|
D|----2-------2---2-------2-------2--------2-------2---2----------|
A|-3-------------------3-----------------0------------------------|
E|----------------------------------------------------------------|



I don’t have the bridge just yet, but when I do i'll put it up.

Hope it works out
Apollo
Suggest correction
Give kudos to tab author, rate the tab!
1 2 3 4 5
comments
print report bad tab
guest
You may want to rate the tab now too:
select rating
Wanna post a correction for this tab? Suggest correction