Oops, an error
Loading. Please wait.

Homesick Tab

version 1
version 1

Intro

Whole song

Interactive

93,183 views 174 this week
4 commentsread comments
1 2 3 4 5
accurate
x 8
add to favorites
launch autoscroll
font size
0
reset
how to read this tab
guitar tuner
Tab Pro tools
  • play this tab
  • loop segment
  • change instrument
  • show fretboard
  • metronome
Autoscroll
slow
fast
+/-
esc
set tempo
stop
Capo 1

Intro:
E|-8----8--7----7-5----5-3----3-0----0-3----3--0---3----------3------------|
B|---8-------7------5------3------1------3-----------1-----------1---------|
G|----9-------7------5------4------2------5------------0----------0--------|
D|-10---10-9----9-7----7-5----5-3----3-5----5----2---------2---------------|
A|---------------------------------------------3---------3-----------------|
E|-------------------------------------------------------------------------|

E|-8----8--7----7-3----3-5----5-1----1-3----3--0---3----------3------------|
B|---8-------7------3------5------1------3-----------1-----------1---------|
G|----9-------7------4------5------2------5------------0----------0--------|
D|-10---10-9----9-5----5-7----7-3----3-5----5----2---------2---------------|
A|---------------------------------------------3---------3-----------------|
E|-------------------------------------------------------------------------|


Fingerpick chords like the end of the intro. If that makes any sense at all.
If not, I apologize. It's not too hard to figure out, though. JUST LISTEN TO THE SONG.

in this order:

C12?- 032013
Am- you can play that
F- and that
G- that too

For the other part of the verses, "two soft voices..", it's something like

C, Am, F, C
Am, C, F

when they sing "a song for.." at the end, I generally fingerpick some chord I forgot the 
for. It's this: xx3210. F something.

Please understand that taking my advice is not always the best idea, as I am not the 
of person to be completely thorough in these endeavors, and have, as you can see, left most 
the playing up to you.

Damn, that was a long sentence.
comments
print report bad tab
4 comments total. Showing first comments.
0 reply
Pomattic wrote on June 21 2008, 06:47 pm

I like it. A good start. Pretty accurate (some notes seem off... but I havent found anything better yet...) Good job

0 reply
gometro33 wrote on March 30 2009, 06:26 pm

There's a little riff that's played during the intro and at ~2:24 (~:50 left) in the song.

Electric, clean:

e|-/9-4-8x--8-4-6x-6--6-4--4-1--1-4--4-1
e|-/9-4-8x--8-4-6x-4--4-6--6-2--2-4--4-1

x = mute

It matches up pretty well with the picking, just listen to the song for timing. Let me know if anyone has corrections.

0 reply
BBrox wrote on December 15 2010, 05:06 pm

Seeing the Seoul live video, I would said Capo4 for the riff and the following tab:


e|-5---0-5-4-----4-2---2-0---0-------0---0---|
B|-------------2---------------2---2-------2-|

e|-5---0-5-4-----4-0---0-2---2-------0---0---|
B|-------------2---------------3---3-------2-|

I want to post or [tab]
guest
You may want to rate the tab now too:
select rating
Please do not post tabs as comments. Select "correction" instead!